Oops, an error
Loading. Please wait.

Against The Grain Tab

version 1
version 1

Whole song

Interactive

2,912 views 3 this week
1 commentread comment
1 2 3 4 5
please rate
add to favorites
launch autoscroll
font size
0
reset
how to read this tab
guitar tuner
Autoscroll
slow
fast
+/-
esc
set tempo
stop
Help us to improve Ultimate-Guitar.com Take our survey!
×
Author
Tuning
D A D G B E
                                AGAINST THE GRAIN
                              As recorded by Unsane
                         (From the 2007 Album VISQUEEN)
                           Tabbed by Robert Giessmann
                           Also available as PowerTab
----------------
Tuning = D A D G B E
Tempo  ~  88bpm
----------------
\n/  - tremolo bar dip; n = amount to dip
 /   - slide into
----------------
See appendix for order of the riffs, if you don't want to figure it out yourself.
----------------

Intro ;)
|----------------|
|----------------|
|----------------|
|----------------|
|----------------|
|--------------0-|


Riff 1                  \1/
|----------------|-------1----------|
|----------------|-------3----------|
|----------------|-------2----------|
|----------------|-------0----------|
|----3-----3---3-|-------0----------|
|3-6---2-5---1---|-0-0-0-0----------|

                         \1/
|-----------------|-------1-----------|
|-----------------|-------3-----------|
|-----------------|-------2-----------|
|-----------------|-------0-----------|
|-----3---3-3---3-|-------0-----------|
|-3-6---6-----1---|-0-0-0-0-----------|


Riff 2
|--------------------------------------------------|
|--------------------------------------------------|
|--------------------------------------------------|
|--10-10-10-10-10-10-10-10-10-10-10-10-10-10-10-10-|
|--------------------------------------------------|
|--------------------------------------------------|

|--------------------------------------------------|
|--------------------------------------------------|
|--------------------------------------------------|
|-12-12-12-10-10-10-12-12-13-13-13-12-12-12-10-10--|
|--------------------------------------------------|
|--------------------------------------------------|

|-------------------------------------------------|
|-------------------------------------------------|
|-12-12-12-12-12-12-10-10-10-12-12-12-13-13-13-13-|
|-------------------------------------------------|
|-------------------------------------------------|
|-------------------------------------------------|

|--------------------------------------------------|
|--------------------------------------------------|
|-12-12-10-10-12-12-10-10-10-10-12-12-10-10-10-10--|
|--------------------------------------------------|
|--------------------------------------------------|
|--------------------------------------------------|


Riff 3
|----------------|-----------------|
|----------------|-----------------|
|----------------|-----------------|
|--11---10---8-5-|-8-8-8-5-(5)-----|
|--11---10---8-5-|-8-8-8-5-(5)-----|
|--11---10---8-5-|-8-8-8-5-(5)-----|


Riff 4
|---------------|------------------|
|---------------|------------------|
|---------------|------------------|
|-11---10---8-5-|-8-8-8-8-8-8-8-8--|
|-11---10---8-5-|-8-8-8-8-8-8-8-8--|
|-11---10---8-5-|-8-8-8-8-8-8-8-8--|


Riff 5
|-----------------|--------------|----------------|--------------------|
|-----------------|--------------|----------------|--------------------|
|-----------------|--------------|----------------|--------------------|
|--3-5-/8-8--8--3-|-(3)-5-5------|-3-5-/8-8--8--3-|-(3)-11-11----10----|
|--3-5-/8-8--8--3-|-(3)-5-5------|-3-5-/8-8--8--3-|-(3)-11-11----10----|
|--3-5-/8-8--8--3-|-(3)-5-5------|-3-5-/8-8--8--3-|-(3)-11-11----10----|


----------------
Appendix 1: Order of riffs within the song
----------------
Riff 	x played	x times
	Intro		1
	1		4
	2		2
	1		2
	3		3
	4		1
	2		2
	1		2
	3		3
	4		1
	5		2
	2		2
	1		2
	3		3
	4		1
	5		2


Appendix 2: Author's comment
----------------
Isn't this song a great reason to use the whammy bar again?! ;) P.S.: Yes, the intro is correct!
Suggest correction
Give kudos to tab author, rate the tab!
1 2 3 4 5
comments
print report bad tab
1 comment total.
0 reply
rgiessmann 146 wrote on September 26 2007, 03:47 pm

While listening again to the song, I recognized that in the first 25 seconds, there is another D in Riff 1. So the lowest line of Riff 1 (but just while playing alone, without combo!), should be:

|3-6---2-5---1---|-0-0-0-0--------0-|-3-6---6-----1---|-0-0-0-0---------0-|

Hope you understand what I mean - just listen and you will hear it, too ;) Sorry!

guest
You may want to rate the tab now too:
select rating
Wanna post a correction for this tab? Suggest correction