Oops, an error
Loading. Please wait.

Ha Ha Ha Tab

323 views 6 this week
no commentswrite comment
1 2 3 4 5
3 more votes to show rating
add to favorites
launch autoscroll
font size
0
reset
how to read this tab
guitar tuner
Autoscroll
slow
fast
+/-
esc
set tempo
stop
Help us to improve Ultimate-Guitar.com Take our survey!
×
Author
Difficulty
Tuning
novice
D A D G B E
Artist - Unsane
Album - Wreck
Song - Ha Ha Ha
Year - 2012
Guitarist - Chris Spencer
Tabber - Alowishus
Date - 1/06/2012

This song is a cover of Flippers "Ha Ha Ha" from their 1984 album Blow N' Chunks. You 
need some serious fuzz/distortion for this one! :P

I haven't tabbed the "noise" breakdown sections. I just improvise those but the actual 
chords are all here.

The main riff - intro/verse/post chorus (rhythm) is this:

E|-----------------|-----------------|
B|-----------------|-----------------|
G|-7-7-7-7---------|-5-5-5-5---------|
D|-7-7-7-7-6-6-6-6-|-5-5-5-5-4-4-4-4-|
A|-5-5-5-5-6-6-6-6-|-3-3-3-3-4-4-4-4-|
D|---------6-6-6-6-|---------4-4-4-4-|

There is then another riff which is played during the chorus i.e. the ha ha ha ha ha 
part. It is:

E|-----------------|
B|-----------------|
G|-4-4-4-4-3-3-3-3-|
D|-4-4-4-4-3-3-3-3-|
A|-2-2-2-2-1-1-1-1-|
D|-----------------|

The post-chorus or bridge then has the noisy breakdown sections. The main riff is played 
as rhythm guitar in those parts but i usually play random chords around the 12-14 fret 
for the lead.

Enjoy.
Suggest correction
Give kudos to tab author, rate the tab!
1 2 3 4 5
comments
print report bad tab
guest
You may want to rate the tab now too:
select rating
Wanna post a correction for this tab? Suggest correction