Oops, an error
Loading. Please wait.

In Your Hands Chords

version 2
version 2

Whole song

  • Tab for intro and verse fingerpicking. Capo on 7th... Show more
46 views 1 this week
no commentswrite comment
1 2 3 4 5
3 more votes to show rating
add to favorites
launch autoscroll
font size
0
reset
transpose
0
reset
simplify chords
display chords
guitar tuner
Autoscroll
slow
fast
+/-
esc
set tempo
stop
Help us to improve Ultimate-Guitar.com Take our survey!
×
Author
Difficulty
Capo
intermediate
7th fret
About this tab version
Tab for intro and verse fingerpicking. Capo on 7th fret (as seen in acoustic version of the song.). Was this info helpful? Yes No
In Your Hands - Unspoken        Capo 7

C      x32010
C7/Bb  x1231x
F/A    x0321x
F2/Ab  4x301x
Am     x02210
Am/G   3x2210
D/F#   2x023x
F      133211
F/G    3x321x

***The tab is pretty straightforward.  Use the chord shapes above with the picking pattern.  If you are not 
familiar with the 'L' it represents a tie on the previous note.***

[Intro]
   C       C7/Bb    F/A    F2/Ab    C       C7/Bb    F/A    F2/Ab          
e|----------------|---------------|----------------|---------------|
B|-1---1-------1--|-----1------1--|-1---1-------1--|-----1------1--|
G|---0---0-3------|-2------0------|---0---0-3------|-2------0------|
D|-----------2----|---3------3----|-----------2----|---3------3----|
A|-3-------1------|-0-------------|-3-------1------|-0-------------|
E|----------------|--------4------|----------------|--------4------|


[Verses]
   C       C7/Bb    F/A    F2/Ab    C       C7/Bb    F/A    F2/Ab          
e|----------------|---------------|----------------|---------------|
B|-1---1-------1--|-----1------1--|-1---1-------1--|-----1------1--|
G|---0---0-3------|-2------0------|---0---0-3------|-2------0------|
D|-----------2----|---3------3----|-----------2----|---3------3----|
A|-3-------1------|-0-------------|-3-------1------|-0-------------|
E|----------------|--------4------|----------------|--------4------|


   Am      Am/G      D/F#              F       F/G  C       
e|-----------------|-----------------|----------------|-----------------------|
B|-----1-------1---|-----1-------1---|-----1----------|-----------------------|
G|-2-------2-------|-2-------2-------|-2-------2-2--0-|-L------0-0h2-0--------|
D|---2---2---2---2-|---0---0---0---0-|---3---3-3-3--2-|-L--0h2---------0h2-0--|
A|-0---------------|-----------------|--------------3-|-L---------------------|
E|---------3-------|-2---------------|-1-------3-3----|-----------------------|


[Intro]  
C  C7/Bb    F/A F2/Ab

[Verse 1]
C           C7/Bb        F/A             F2/Ab          C
The dawn is breaking and I can hear Your whisper in the breeze
             C7/Bb      F/A          F2/Ab          Am  
The world is waking and I am here to meet You on my knees
         Am/G        D/F#           
When I'm with You my soul finds rest
           F  F/G                C  
Cause I can    leave it in Your hands


[Verse 2]
C             C7/Bb  F/A          F2/Ab             C  
The day keeps coming pulling me a million different ways
            C7/Bb      F/A           F2/Ab              Am
I'm always running but never seem to catch the things I chase
         Am/G        D/F#                   
When I'm with You my soul finds rest
           F  F/G                C
Cause I can     leave it in Your hands


[Chorus 1]
      F   C              G       Am   
Every sorrow, I leave it in Your hands
      F    C               G       Am   
Every sickness, I leave it in Your hands
       F   C                  G       Am
All my failures, I leave them in Your hands
  F     F/G              C 
Amen, I leave it in Your hands


[Verse 3]
C       C7/Bb      F/A                 F2/Ab           C   
So I am laying the weight of all these burdens at Your feet
        C7/Bb          F/A            F2/Ab        Am  
No more waiting, cause You've already won my victories
   Am/G     D/F#              
In Jesus my soul finds rest
           F  F/G              C 
Cause I can   leave it in Your hands


[Chorus 2]
      F  C                G       Am   
Every promise, I leave it in Your hands
      F  C                G       Am   
Every healing, I leave it in Your hands
       F  C               G       Am   
And my future, I leave it in Your hands
    F  F/G                   C
Amen, I can leave it in Your hands


[Bridge]
F         G                   C
It's Your hands that form the mountains
F              G                  C  
Your hands set boundaries for the seas
F                     E    Am        
And in Your hands You hold tomorrow
         F          Am                 G
The same hands that took the nails for me


[Chorus 1]
      F   C              G       Am   
Every sorrow, I leave it in Your hands
      F    C               G       Am   
Every sickness, I leave it in Your hands
       F   C                  G       Am
All my failures, I leave them in Your hands
  F     F/G              C 
Amen, I leave it in Your hands

[Chorus 2]
      F  C                G       Am   
Every promise, I leave it in Your hands
      F  C                G       Am   
Every healing, I leave it in Your hands
       F  C               G       Am   
And my future, I leave it in Your hands
    F  F/G                   C
Amen, I can leave it in Your hands

[Ending]
 F    F/G               C 
 I can  leave it in your hands
Suggest correction
Give kudos to tab author, rate the tab!
1 2 3 4 5
comments
print report bad tab
guest
You may want to rate the tab now too:
select rating
Wanna post a correction for this tab? Suggest correction