Oops, an error
Loading. Please wait.

Oyasumi chords

by UnsraW
601 views 6 this week
no commentswrite comment
1 2 3 4 5
3 more votes to show rating
add to favorites
×
Save as Personal and add changes to this tab that will be seen only by you. Learn more ›
×
You can save this tab as Personal to edit and correct it or add notes. All changes will be seen only by you. Learn more »
launch autoscroll
font size
0
reset
transpose
0
reset
display chords
guitar tuner
edit
Autoscroll
slow
fast
+/-
esc
set tempo
stop
Strumming
There is no strumming pattern for this song yet. and get +5 IQ
[Intro]

e|---------------------------------------------------------------------------------|
B|---------------------------------------------------------------------------------|
G|-----2------2--------0------------0------2------2--------0------------0----------|
D|-------2------2--------2------2------------2-------2--------2------2-------------|
A|---0-----------------------2----------0-------------------------2----------------|
E|----------1-------3---------------------------1--------3-------------------------|

e|---------------------------------------------------------------------------------|
B|---------------------------------------------------------------------------------|
G|-----2------2--------0------------0------2------2--------0-----------------------|
D|-------2------2--------2------2------------2-------2--------2--------------------|
A|---0-----------------------2----------0-------------------------2----------------|
E|----------1-------3---------------------------1--------3-------------------------|


[Verse]

   Am            F     Em
Hi wo otoshita gogo sanji sugi
  Am                  F       Em
Mado no soto wa nariyamanai semi no koe
  Am                   F          Em
Kono nanimo nai shiroi kuuhaku no heya de
  Am                      F        Em
Boku wa itsu kara yoko ni natteita no darou


[Intro]


[Verse]

 Am                  F        Em
Ubawareta hazu hidarite no kankaku wa
  Am                   F       Em
Mada azayaka ni asu wo irodorou tomarazu ni
  Am                 F           Em
Tenohira kara oto wo tatete suna wa koboreru.
  Am                    F           Em  
Naze ikiteiru no? Sonna koto mo ima wa wakaranai.


[Pre-Chorus]

Dm                       F
    Yagate hi wa nagarete     kasumi iro ni somari.
Dm                        F   Em
    Tooki ano hi ni ima modorenai.


[Chorus]

Am    C   G     Em
Wasureta ”omou” yo.
Am   C       G        Em
Naze ni sora wo niramuno.
Am    C     G       Em
Kanadeta senritsu sae
Am  C       G     F
Mou   todokanai yume no ato


[Pre-Chorus]


Dm                       F
    Yagate hi wa nagarete     kasumi iro ni somari.
Dm                        F   Em
    Tooki ano hi ni ima modorenai.


[Chorus]

Am    C   G     Em
Wasureta ”omou” yo.
Am   C       G        Em
Naze ni sora wo niramuno.
Am    C     G       Em
Kanadeta senritsu sae
Am  C       G     F
Mou   todokanai yume no ato


[Bridge]

F         Em         Am      G
   Haneno nai kotori yo naze ni madobe ni
     F            Em            Am
Sore demo mada tobou to suru no wa naze?
 G
Oshiete yo

Am  G         F
Mou sukoshi dake...
Am  G         F
Mou sukoshi dake...
        Em            Am   G     F
Yume no tsuzuki mite itai yo
Am             G           F               Em
Dakara semete ima dake wa “kimi” no koe ni yudanete


[Chorus]

Am  C       G      Em
Kumoma sasu hikari no
Am    C        G       Em
Mukou wa ga wa de kimi wa
Am   C      G     Em
Waraete iru darou ka
Am  C      G          F
Todo   iteimasu ka ”kono” koe ga


Am  G         F
Mou sukoshi dake...
Am  G         F
Mou sukoshi dake...
        Em            Am   G     F
Yume no tsuzuki mite itai yo
Am             G           F               Em
Dakara semete ima dake wa “kimi” no koe ni yudanete
Am            G
Ima egao de ”oyasumi” ni…

            
            
Suggest correction
Creating personal tab
Creating personal tab
You can edit any tab online and save it as your Personal.

You can edit, replace or remove any tab part or add personal notes – all changes will be seen only by you.

Personal tabs can be accessed anytime from any device, even offline.
Learn more »
Give kudos to tab author, rate the tab!
1 2 3 4 5
comments
print report bad tab
guest
You may want to rate the tab now too:
select rating
Wanna post a correction for this tab? Suggest correction