Oops, an error
Loading. Please wait.

Kristina Bass Tab

version 2
version 2

Whole song

73 views 1 this week
3 commentsread comments
1 2 3 4 5
please rate
add to favorites
launch autoscroll
font size
0
reset
guitar tuner
Tab Pro tools
  • play this tab
  • loop segment
  • change instrument
  • show fretboard
  • metronome
×
Best way to learn
"Kristina"
Autoscroll
slow
fast
+/-
esc
set tempo
stop
Contributor
intro
g-------------------------
d-------------------------
a-0--8-10--7-8--5-7--3-(play this part 3 times accelerating the rithm each time)
e-------------------------
  
then, after playing the part 3 times, just play this:
g-------------------------------------
d------------------------9------------
a-0--8-10--7-8--5----/11---8-7h8-7----
e-------------------------------------

g----------------------------------------------
d------------------4-7-4----------------9------
a---------4-7-4--5--------7-8-7-5---0/7---7----
e-17/5--5-----------------------------------8--

g--------------------------]--------------
d------------4-7-4---------]----7---------
a---4-7-4--5-------7-8-7-5-]--5-----7-----
e-5------------------------]------5-------

then you keep repeating this part over and over:
(main part)
g---------------------------
d------------4-7-4----------
a---4-7-4--5-------7-8-7-5--
e-5-------------------------

but you switch beetween this variations at the end
of the main part in this order:
g----------                           g------------
d----7----- repeat main part and then d------9----- 
a--5-----7-                           a--0/7---7---                  
e------5---                           e----------8-

repeat main part again and then:
g----------
d----------
a--7-5-4-2-
e----------

bridge:
g-----------------------------------
d-----------------------------------and you repeat it pver and over again
a---------------------4-444-44-44-4-
e--5-555-55--0-000-00---------------

bass solo:
g-------------------------------------
d-----------------7----------------8--and you repeat over and over again
a--0-000-000-0000---0-000-000-0000----
e-------------------------------------

The song structure is really easy to find out, you'll have no problem.

I got it by ear, but I'm sure it's about 99.9% accurate.
 any comments or sugestions, feel free to mail me at: sk8boarder54@hotmail.com
comments
We did not receive enough feedback on this tab! Please rate:
print report bad tab
1 2 3 4 5
3 comments total.
0 reply
bass guy wrote on January 8 2003, 12:00 am

in the bridge is not just
g--------------------------
d--------------------------
a-----------------4444444--
e--555555--000000----------
you have to play it like this:
g-------------------------------
d-------------------------------
a----------------444444-5555555-
e--555555-000000----------------

0 reply
bass guy wrote on January 8 2003, 12:00 am

in the bridge don't just play this:
g---------------------------
d---------------------------
a-----------------44444444--
e--555555-000000------------
play it like this:
g--------------------------------
d--------------------------------
a-----------------444444-5555555-
e--555555-000000-----------------

0 reply
GopherChoad wrote on February 23 2003, 12:00 am

Intro
G-------12----------------------
D----15---14-15-12-14-----------
A-12------------------15--------
E-------------------------------
B-------------------------------x3

G-------12---------------13-16-----
D----15----14-15-12h14h15-----15-14h15p14
A-12-------------------------------
E---------------------------------
B--------------------------------

I want to post or [tab]
guest
You may want to rate the tab now too:
select rating
Please do not post tabs as comments. Select "correction" instead!