Oops, an error
Loading. Please wait.

My Bad Tab

78 views 1 this week
no commentswrite comment
1 2 3 4 5
please rate
add to favorites
launch autoscroll
font size
0
reset
how to read this tab
guitar tuner
Autoscroll
slow
fast
+/-
esc
set tempo
stop
Help us to improve Ultimate-Guitar.com Take our survey!
×
Author
"My bad" by Unsung Zeros

Dots(.....)stand for palm mutes.

      h - hammer on 
      p - pull off 
      b - bend string up
      r - release bend
      / - slide up
      \ - slide down
      v - vibrato (sometimes written as ~)
      t - right hand tap
      x - play 'note' with heavy damping

Standard Tuning


INTRO:

e-----------------------------------
b-----------------------------------
g-----------------------------------
d---7-------------------------------   x10
a-----5-7-9-10-9--------------------
e-----------------------------------

Verse:

e-------------------------------------------------------
b-------------------------------------------------------
g--7-xxxxxxxxxxxxxx-7-xxxxxxxxxxxxxx-4-xxxxxxxxxxxxxx---
d--7-xxxxxxxxxxxxxx-7-xxxxxxxxxxxxxx-4-xxxxxxxxxxxxxx---   
a--5-xxxxxxxxxxxxxx-5-xxxxxxxxxxxxxx-2-xxxxxxxxxxxxxx---
e-------------------------------------------------------
                                                              x2
----------------------
----------------------
----------------------
--5-xxxxxx--7-xxxxxx--  
--5-xxxxxx--7-xxxxxx--
--3-xxxxxx--5-xxxxxx--

Chorus:

e-------------------------------------------------------
b-------------------------------------------------------
g--777777777777777--------------------------------------
d--777777777777777-77777777777777-999999999999999-------   
a--555555555555555-77777777777777-999999999999999-------
e------------------55555555555555-777777777777777-------

e-------------------------------------------------------
b-------------------------------------------------------
g------------------77777777777777-----------------------
d--555555555555555-77777777777777-7---------------------   
a--555555555555555-55555555555555-7-Let Ring------------
e--333333333333333----------------5---------------------

Interlude:

e-----------------------------------
b-----------------------------------
g-----------------------------------
d---7-------------------------------   x8
a-----5-7-9-10-9--------------------
e-----------------------------------

Verse

Chorus

Bridge:

e-----------------------------------
b-----------------------------------
g--77777777-77777777----------------
d--xxxxxxxx-xxxxxxxx----------------   x10
a--55555555-44444444----------------
e-----------------------------------

Outro:

e-----------------------------------
b--------------5--------------------
g--77----77-----5-77----------------
d--77-77-77-77----77-77-------------   x10
a--55-77-55-77----55-77-------------
e-----55----55-------55-------------
   .. .. .. ..    .. ..


The End
Suggest correction new What's this?
You can suggest a correction to this tab. Community and Mods will review your correction and vote to approve or reject it.
comments
We did not receive enough feedback on this tab! Please rate:
print report bad tab
1 2 3 4 5
guest
You may want to rate the tab now too:
select rating
Please do not post tabs as comments. Select "correction" instead!