Oops, an error
Loading. Please wait.

Turncoat Tab

170 views 1 this week
no commentswrite comment
1 2 3 4 5
please rate
add to favorites
launch autoscroll
font size
0
reset
how to read this tab
guitar tuner
Autoscroll
slow
fast
+/-
esc
set tempo
stop
Help us to improve Ultimate-Guitar.com Take our survey!
×
Author
Artist: Unsung Zeros
Album: Moments From Mourning
Song: Turncoat
Tuning: Standard (EADGBe)

Here is how I play this song.

Intro
e --------------------|
B --------------------| 4x then
G -------9-9-8-8------|
D -11-11---------9-9--|
A --------------------|
E --------------------|
    .  . . . . . . . palm mute

e -----------------------------------------------|
B -----------------1010101099991212121212121212--| 2x then
G -9999999999999999------------------------------|
D -----------------------------------------------|
A -----------------------------------------------|
E -----------------------------------------------|

e --------------------         ----------------------|
B -------------------- 6x then ----------------------|
G -------9-9-8-8------         -9p8h9p8h9p8h9p8h9p8--|
D -11-11---------9-9--         ----------------------|
A --------------------         ----------------------|
E --------------------         ----------------------|

Verse
e --------------------------------------------------|
B --------------------------------------------------|
G -44-44-66-66-------22-22-44-44-66-66-------22-2~--|
D -44-44-66-66-22-22-22-22-44-44-66-66-22-22-22-2~--|
A -22-22-44-44-22-22-00-00-22-22-44-44-22-22-00-0~--|
E -------------00-00-------------------00-00--------|

Verse continued
e --------------------|
B --------------------| 14x
G -------9-9-8-8------|
D -11-11---------9-9--| release palm mute after 7th time
A --------------------| let last note ring 14th time
E --------------------|
    .  . . . . . . .

Chorus
e -------------------------------------------------------------------|
B -------------------------------------------------------------------|
G -----------------4444444444444444----------------------------------|
D -22222222222222224444444444444444-7-7-7-9-7-7-7-9-7-7-7-9-7-7-7-9--|
A -22222222222222222222222222222222-7-7-7-9-7-7-7-9-7-7-7-9-7-7-7-9--|
E -0000000000000000-----------------5-5-5-7-5-5-5-7-5-5-5-7-5-5-5-7--|

Chorus Continued                             post chorus/pre verse
e ------------------------------------------|------------------|
B ------------------------------------------|------------------|
G -----------------4444444444444444-66-44-22|2222222222222222--|
D -22222222222222224444444444444444-66-44-22|2222222222222222--|
A -22222222222222222222222222222222-44-22-00|0000000000000000--|
E -0000000000000000-------------------------|------------------|
                                              .............

2nd Verse
e ------------------------------------------|
B ------------------------------------------|
G -44~~~~---------------------------111111--|
D -44~~~~----------------------------9-9-9--|
A -22~~~~----------------------------9-9-9--|
E ------------------------------------------|

Verse continued
e --------------------|
B --------------------| 14x
G -------9-9-8-8------|
D -11-11---------9-9--| release palm mute after 7th time
A --------------------| pause after last note
E --------------------|
    .  . . . . . . .

Chorus
e -------------------------------------------------------------------|
B -------------------------------------------------------------------|
G -----------------4444444444444444----------------------------------|
D -22222222222222224444444444444444-7-7-7-9-7-7-7-9-7-7-7-9-7-7-7-9--|
A -22222222222222222222222222222222-7-7-7-9-7-7-7-9-7-7-7-9-7-7-7-9--|
E -0000000000000000-----------------5-5-5-7-5-5-5-7-5-5-5-7-5-5-5-7--|

Chorus Continued                             fill
e ------------------------------------------|------------------|
B ------------------------------------------|------------------|
G -----------------4444444444444444-66-44-22|2222222222222222--|
D -22222222222222224444444444444444-66-44-22|2222222222222222--|
A -22222222222222222222222222222222-44-22-00|0000000000000000--|
E -0000000000000000-------------------------|------------------|
                                              .............
Final Chorus/Outro
e -------------------------------------------------------------------|
B -------------------------------------------------------------------|
G -----------------4444444444444444----------------------------------|
D -22222222222222224444444444444444-7-7-7-9-7-7-7-9-7-7-7-9-7-7-7-9--|
A -22222222222222222222222222222222-7-7-7-9-7-7-7-9-7-7-7-9-7-7-7-9--|
E -0000000000000000-----------------5-5-5-7-5-5-5-7-5-5-5-7-5-5-5-7--|

Final Chorus/Outro
e ---------------------------------------------------------------------|
B ---------------------------------------------------------------------|
G -----------------4444444444444444-6-6-6-6---------6-6-6-6------------|
D -22222222222222224444444444444444-6-6-6-67-7-7-7-76-6-6-67-7-7-7-72--|
A -22222222222222222222222222222222-4-4-4-47-7-7-7-74-4-4-47-7-7-7-72--|
E -0000000000000000------------------------5-5-5-5-5-------5-5-5-5-50--|

Email any and all questions/comment to unsung_zero@hotmail.com
Suggest correction
What's this?
You can suggest a correction to this tab. Community and Mods will review your correction and vote to approve or reject it.
comments
We did not receive enough feedback on this tab! Please rate:
print report bad tab
1 2 3 4 5
guest
You may want to rate the tab now too:
select rating
Please do not post tabs as comments. Select "correction" instead!