Oops, an error
Loading. Please wait.

Driving Me Crazy Tab

514 views 1 this week
no commentswrite comment
1 2 3 4 5
please rate
add to favorites
launch autoscroll
font size
0
reset
how to read this tab
guitar tuner
Autoscroll
slow
fast
+/-
esc
set tempo
stop
Help us to improve Ultimate-Guitar.com Take our survey!
×
Author
Difficulty
intermediate
-------10-11-10--------------------------------| [Listen to the song as you
--9-11----------11-9-11-----5-7-9-10-9-7-5-4---| play the tabs it will help
-----------------------------------------------| you a lot.]
-----------------------------------------------| Feedback would be appre-
-----------------------------------------------| ated, thanks. :)
-----------------------------------------------|

-------10-11-10--------------------------------|
--9-11----------11-9-11-----5-7-9-10-9-7-12-7--|
-----------------------------------------------|
-----------------------------------------------|
-----------------------------------------------|
-----------------------------------------------|

-----------------------------------------------|
-4-2-4-5-4-0-5-4-0-5-4-0---5-4-0-5-4-0-5-------|
-----------------------------------------------|
-----------------------------------------------|
-----------------------------------------------|
-----------------------------------------------|

I miss you girl, I need you girl
Uh, uh, Untouchable, driving me, driving me, driving me crazy

-------10-11-10--------------------------------|
--9-11----------11-9-11-----5-7-9-10-9-7-5-4---|
-----------------------------------------------|
-----------------------------------------------|
-----------------------------------------------|
-----------------------------------------------|
Nobody, nobody, I want nobody but you
How, how did it become like this? I want you
-------10-11-10--------------------------------|
--9-11----------11-9-11-----5-7-9-10-9-7-5-7---|
-----------------------------------------------|
-----------------------------------------------|
-----------------------------------------------|
-----------------------------------------------|
It's okay, it's okay. If I'm by your side, it's okay
Crazy, crazy, they say I'm crazy for this kind of love
-------10-11-10--------------------------------|
--9-11----------11-9-11-----5-7-9-10-9-7-5-7---|
-----------------------------------------------|
-----------------------------------------------|
-----------------------------------------------|
-----------------------------------------------|
Like being hit by a bullet, our memories slide down my fingers
Love is easy like that. Today is harder than yesterday
-------10-11-10---11---------------------------|
--9-11----------11--11------5-7-9-10-9-7-5-7---|
-----------------------------------------------|
-----------------------------------------------|
-----------------------------------------------|
-----------------------------------------------|
Can you hear me? Are you listening?
Whoever sees you, you're exactly my style
Our love is warm like the sunset glow

You're driving me crazy
Don't forget me, baby. I hope for your happiness as you leave me
Don't believe me, baby. It's a lie for you
I want you like crazy
You're driving me crazy
You're driving me crazy (Can I live well without you?)
You're driving me crazy (It's already tiring)
You're driving me crazy (I'll go crazy like this)
Come back to me, baby boo
In my heart is you, you... In me is you, you...

-------10-11-10--------------------------------|
--9-11----------11-9-11-----5-7-9-10-9-7-5-4---|
-----------------------------------------------|
-----------------------------------------------|
-----------------------------------------------|
-----------------------------------------------|
Good bye, it was all a lie
I'm a bad man
Swallowing a farewell like a sharp thorn
Should I say I love you again?
-------10-11-10--------------------------------|
--9-11----------11-9-11-----5-7-9-10-9-7-5-7---|
-----------------------------------------------|
-----------------------------------------------|
-----------------------------------------------|
-----------------------------------------------|
Riding a goodbye taxi together,
Like I'm alive for one day, I'm happiest when I spend time with you
After one day, I miss you. Have you forgotten me?
-------10-11-10--------------------------------|
--9-11----------11-9-11-----5-7-9-10-9-7-5-4---|
-----------------------------------------------|
-----------------------------------------------|
-----------------------------------------------|
-----------------------------------------------|
After one day, I miss you. Have you forgotten me?
If love was a crime, I'm guilty
The happy times we had
Is now our sorrow
-------10-11-10---11---------------------------|
--9-11----------11--11------5-7-9-10-9-7-5-4---|
-----------------------------------------------|
-----------------------------------------------|
-----------------------------------------------|
-----------------------------------------------|
Day by day, I'm going crazy like Gloomy Sunday
How is it? I believe you'll come back, I believe
It's okay, until the day you come back, we'll greet for a short while

You're driving me crazy
Don't forget me, baby. I hope for your happiness as you leave me
Don't believe me, baby. It's a lie for you
I want you like crazy
You're driving me crazy
You're driving me crazy (Can I live well without you?)
You're driving me crazy (It's already tiring)
You're driving me crazy (I'll go crazy like this)
Come back to me, baby boo
In my heart is you, you... In me is you, you...


I actually wish that this was all a dream, please come back

I wait in front of your house for an unbelievable 1 minute 1 second
Our love can't just end like this, so I write a letter to you
I wait in front of your house for an unbelievable 1 minute 1 second
Our love can't just end like this. Because I'm a man, I wait
Suggest correction new What's this?
You can suggest a correction to this tab. Community and Mods will review your correction and vote to approve or reject it.
comments
We did not receive enough feedback on this tab! Please rate:
print report bad tab
1 2 3 4 5
guest
You may want to rate the tab now too:
select rating
Please do not post tabs as comments. Select "correction" instead!