Oops, an error
Loading. Please wait.

Data tab

by Unwound
466 views 1 this week
3 commentsread comments
1 2 3 4 5
x 4
add to favorites
×
Save as Personal and add changes to this tab that will be seen only by you. Learn more ›
×
You can save this tab as Personal to edit and correct it or add notes. All changes will be seen only by you. Learn more »
launch autoscroll
font size
0
reset
how to read this tab
guitar tuner
edit
Autoscroll
slow
fast
+/-
esc
set tempo
stop
Author
Difficulty
UNWOUND - DATA

e|--------------------------------------------|
B|-0--0-0-0-0--0--0-0--0--0--0-0-0-0--0-0--0--|
G|-11-11111111-11-1111-11-11-11111111-1111-11-|
D|-9--9-9-9-9--9--9-9--9--9--9-9-9-9--9-9--9--| x4
A|--------------------------------------------|
E|--------------------------------------------|

e|----------------------|
B|-10---------10--------|
G|----------------------|
D|-----12--9--------12--| x4
A|----------------------|
E|----------------------|

e|---------------------------12121212121212121212121212121212----------|
B|-111111111111-141414141414----------------------------------14141414-|
G|---------------------------------------------------------------------|
D|---------------------------------------------------------------------|
A|---------------------------------------------------------------------|
E|---------------------------------------------------------------------|

e|-------------------------------------------------------------|
B|-11111111111111111111/12/13/14/15/16/17/18/19/20/21/22/23----|
G|-------------------------------------------------------------|
D|-------------------------------------------------------------|
A|-------------------------------------------------------------|
E|-------------------------------------------------------------|

e|--------------------------------------------|
B|-0--0-0-0-0--0--0-0--0--0--0-0-0-0--0-0--0--|
G|-11-11111111-11-1111-11-11-11111111-1111-11-|
D|-9--9-9-9-9--9--9-9--9--9--9-9-9-9--9-9--9--| x2
A|--------------------------------------------|
E|--------------------------------------------|

e|----------------------|
B|-10---------10--------|
G|----------------------|
D|-----12--9--------12--| x4
A|----------------------|
E|----------------------|

e|---------------------------12121212121212121212121212121212----------|
B|-111111111111-141414141414----------------------------------14141414-|
G|---------------------------------------------------------------------|
D|---------------------------------------------------------------------|
A|---------------------------------------------------------------------|
E|---------------------------------------------------------------------|

e|-------------------------------------------------------------|
B|-11111111111111111111/12/13/14/15/16/17/18/19/20/21/22/23----|
G|-------------------------------------------------------------|
D|-------------------------------------------------------------|
A|-------------------------------------------------------------|
E|-------------------------------------------------------------|

e|--------------------------------------------|
B|-0--0-0-0-0--0--0-0--0--0--0-0-0-0--0-0--0--|
G|-11-11111111-11-1111-11-11-11111111-1111-11-|
D|-9--9-9-9-9--9--9-9--9--9--9-9-9-9--9-9--9--| x2
A|--------------------------------------------|
E|--------------------------------------------|

e|----------------------|
B|-10---------10--------|
G|----------------------|
D|-----12--9--------12--| x4
A|----------------------|
E|----------------------|


e|---------------------------12121212121212121212121212121212----------|
B|-111111111111-141414141414----------------------------------14141414-|
G|---------------------------------------------------------------------|
D|---------------------------------------------------------------------|
A|---------------------------------------------------------------------|
E|---------------------------------------------------------------------|

e|-------------------------------------------------------------|
B|-11111111111111111111/12/13/14/15/16/17/18/19/20/21/22/23----|
G|-------------------------------------------------------------|
D|-------------------------------------------------------------|
A|-------------------------------------------------------------|
E|-------------------------------------------------------------|

-----------------------------------------

e|-------------------|
B|-------0--------0--|
G|-------------------|
D|----7-----7--------| x4
A|-------------------|
E|-7-----------7-----|

e|-------------------------|
B|-------------------------|
G|-------0-----------0--0--|
D|----4-----4--------2--0--|
A|-------------------------|
E|-3-----------3-0---------|

play section x3
-----------------------------------------

e|------------------------------------------------------------------------|
B|-------------------------------------------5------5---------------------|
G|--------14------12--------0--6h7p6p0--------------------7--6------7--6--|
D|-----12-----12---------7----------------2-----2-----7---7--7--7---7--7--| 
A|-14-----------------9----------------4----------4---0---------0---------|
E|------------------------------------------------------------------------|

play above x3

e|----------------------------------------|
B|----------------------------------------|
G|-----7--6------7--6---------------------|
D|-7---7--7--7---7--7--9BD(7)(7)(7)(7)(9)-|
A|-0---------0---------0------------------|
E|----------------------------------------|
Suggest correction
Creating personal tab
Creating personal tab
You can edit any tab online and save it as your Personal.

You can edit, replace or remove any tab part or add personal notes – all changes will be seen only by you.

Personal tabs can be accessed anytime from any device, even offline.
Learn more »
comments
print report bad tab
3 comments total.
0 reply
budameat 540 Jul 09, 2013 11:38 AM

blackxfuture did it again :)

0 reply
bennyshambles78 4,121 Feb 04, 2014 08:21 AM, edited at 01:22 pm

Some parts are spot on, but there is an easier way to play the last third of the song that also sounds more accurate. Great job though... Unwound songs aren't easy to figure out on guitar.

guest
You may want to rate the tab now too:
select rating
Wanna post a correction for this tab? Suggest correction