Oops, an error
Loading. Please wait.

Descension tab

version 2
version 2

Whole song

by Unwound
278 views 1 this week
2 commentsread comments
1 2 3 4 5
2 more votes to show rating
add to favorites
×
Save as Personal and add changes to this tab that will be seen only by you. Learn more ›
×
You can save this tab as Personal to edit and correct it or add notes. All changes will be seen only by you. Learn more »
launch autoscroll
font size
0
reset
how to read this tab
guitar tuner
edit
Autoscroll
slow
fast
+/-
esc
set tempo
stop
Author
Difficulty
Song: Descension
Artist: Unwound
Album: The Future of What
Tab author: budameat, special thanx to UG user Blackxfuture
Tuning: STANDARD
Notes:Play loosly with a lost of open G string notes.
More notes below. Comments are welcome.

-----------------------------------------------------------

Intro/Outro:x4

e|--------------------------------------------(7--7--7--7)-|
B|--10--10-10-10-10-10-10-10-10-10-7--7--7--7--7--7--7--7--|
G|--0---0--0--0--0--0--0--0--0--0--0--0--0--0--0--0--0--0--|
D|--x---x--x--x--x--x--x--x--x--x--x--x--x--x--x--x--x--x--|
A|--12--12-12-12-12-12-12-12-12-12-9--9--9--9--9--9--9--9--|
E|---------------------------------------------------------|

e|-----------------------------|
B|-8-8-8-8-8-8-8-4-4-4-4-4-4-4-|
G|-0-0-0-0-0-0-0-0-0-0-0-0-0-0-|
D|-x-x-x-x-x-x-x-5-5-5-5-5-5-5-| x2
A|-7-7-7-7-7-7-7-6-6-6-6-6-6-6-|
E|-----------------------------|

Pre-Verse:1x

e|------------------------------|
B|--8---------------------------|
G|--0-----|hit for 2 bars|------|
D|--x---------------------------|
A|--10--------------------------|
E|------------------------------|

Verse:2x

part I
e|------------------------|-- repeat 2x --|--------|
B|---8---------------------8-8-8-8-8-8-8-8---------|
G|---0---------------------0-0-0-0-0-0-0-0---------|
D|---x----!hit approx x12!-x-x-x-x-x-x-x-x---------| x2
A|---10--------------------6-8-8-8-8-6-6-6---------|
E|-------------------------------------------------|

Part II
e|------------------------------------------------|
B|--8--8--8--8--8--8--8--8---11b-12-12-12-12b11---|
G|--0--0--0--0--0--0--0--0---0---0--0--0--0-------|
D|--x--x--x--x--x--x--x--x---x---x--x--x--x-------| 4x
A|--10-10-10-10-10-10-10-10-(13--13-13-13-13)-----|
E|------------------------------------------------|

Post Verse I:

e|------------------------------|
B|--8---------------------------|
G|--0-----|hit for 4 bars|------|
D|--x---------------------------|
A|--10--------------------------|
E|------------------------------|


Post Verse II:1x (1 bar)

e|--------3-----3---3-----3---|
B|--------1-----1---1-----1---|
G|-0--0-0-0-0-0-0---0-----0---|
D|-x--x-x-x-x-x-x-x---x-x---x-|
A|-3--3-3-3-3-3-3-3---3-3---3-|
E|----------------------------|

---------------------------------------------------------

SONG STRUCTURE:

Intro:4x
Pre-Verse:1x (2 bars)
Verse:2x
Post Verse I:1x (4 bars)
Post Verse II:1x (1 bar)
Outro: 4x

---------------------------------------------------------

Descension LYRICS

another episode behind the tainted screen. a choking victim of it's own vomit, naturally.
a scary horror show that starts to speak too slow, and then it makes it clear that it 
will disappear.
we're always sinking. an endless circle.
we're always sinking. an endless circle.
another heart attack, so never turn your back on other sightless sights, on all the 
endless nights.
it never occured to you when always looking up that when it gets to you, nausea will resume.
we're always sinking. an endless circle.
we're always sinking. an endless circle.
an awful feeling. an awful feeling. an awful feeling. an awful feeling.
moving forward, nothing's over.
static sentence; soundless, anxious.
no momentum, no dilemma.
never stated, nothing's sacred.

---------------------------------------------------------

Tabulature notes:

Verse/part I: There seem's to be a 2nd guitar while the 1st is playing the G5 chord.
Hard to hear, but it sounds like this:

part I
e|-| G1 |-|          2nd Guitar         |-|  repeat 2x  |---------|
B|---8----8-8-8-8-8-8-8-8-8-8-8-8-8-8-8-8-8-8-8-8-8-8-8-8---------|
G|---0----0-0-0-0-0-0-0-0-0-0-0-0-0-0-0-0-0-0-0-0-0-0-0-0---------|
D|---x----8-7-7-7-7-8-8-8-8-7-7-7-7-8-8-8-x-x-x-x-x-x-x-x---------| x2
A|---10-----------------------------------6-8-8-8-8-6-6-6---------|
E|----------------------------------------------------------------|

Outro:I can't decide if the Outro A(no5) chord could be replaced with a G based chord, 
like this:

e|--------------------------------------------(7--7--7--7)-|
B|--10--10-10-10-10-10-10-10-10-10-7--7--7--7--7--7--7--7--|
G|--0---0--0--0--0--0--0--0--0--0--0--0--0--0--0--0--0--0--|
D|--x---x--x--x--x--x--x--x--x--x--x--x--x--x--x--x--x--x--|
A|--10--10-10-10-10-10-10-10-10-10-9--9--9--9--9--9--9--9--|
E|---------------------------------------------------------|

Comments are welcome!

---------------------------------------------------------

Tablature explanation:
######################
B       Full Bend
b       1/2  Bend
bb      1/4  Bend
~~~~~   Tremolo
^(#)    Bend to (#)
/       Slide up
\       Slide down
h       Hammer-on
p       Pull-off
(#)     Ghost note
%       Rest
######################

            
            
Suggest correction
Creating personal tab
Creating personal tab
You can edit any tab online and save it as your Personal.

You can edit, replace or remove any tab part or add personal notes – all changes will be seen only by you.

Personal tabs can be accessed anytime from any device, even offline.
Learn more »
Give kudos to tab author, rate the tab!
1 2 3 4 5
comments
print report bad tab
2 comments total.
+1 reply
bennyshambles78 4,121 Mar 13, 2014 12:12 PM

This one is really tough to figure out. I'm pretty sure it's played with the low E tuned up to G though.

And yes, there is definitely another guitar track (or two) that is just playing a droning G octave chord of some sort in the background.

I don't have my guitar with me now, but I remember something like this sounding right for the main guitar track:

E|-0--0--0--0--0--0--0--0--0--0--0--0--0--0--0--0-|
B|-0--0--0--0--0--0--0--0--0--0--0--0--0--0--0--0-|
G|-7--7--7--7--7--7--7--7--7--7--7--7--7--7--7--7-|
D|-7--7--7--7--7--7--7--7--7--7--7--7--7--7--7--7-|
A|-5--5--5--5--5--5--5--5--5--5--5--5--5--5--5--5-|
G|-0--0--0--0--0--0--0--0--0--0--0--0--0--0--0--0-|
+
E|-0--0--0--0--0--0--0--0--0--0--0--0--0--0--0--0-|
B|-3--3--3--3--3--3--3--3--3--3--3--3--3--3--3--3-|
G|-0--0--0--0--0--0--0--0--0--0--0--0--0--0--0--0-|
D|-4--4--4--4--4--4--4--4--4--4--4--4--4--4--4--4-|
A|-5--5--5--5--5--5--5--5--5--5--5--5--5--5--5--5-|
G|-0--0--0--0--0--0--0--0--0--0--0--0--0--0--0--0-|
+
E|-0--0--0--0--0--0--0--0--0--0--0--0--0--0--0--0-|
B|-8--8--8--8--8--8--8--3--3--4--4--4--4--4--4--4-|
G|-0--0--0--0--0--0--0--0--0--0--0--0--0--0--0--0-|
D|-x--x--x--x--x--x--x--4--4--5--5--5--5--5--5--5-|
A|-7--7--7--7--7--7--7--5--5--6--6--6--6--6--6--6-|
G|-0--0--0--0--0--0--0--0--0--0--0--0--0--0--0--0-|
+
E|-0--0--0--0--0--0--0--0--0--0--0--0--0--0--0--0-|
B|-8--8--8--8--8--8--8--3--3--4--4--4--4--4--4--4-|
G|-0--0--0--0--0--0--0--0--0--0--0--0--0--0--0--0-|
D|-x--x--x--x--x--x--x--4--4--5--5--5--5--5--5--5-|
A|-7--7--7--7--7--7--7--5--5--6--6--6--6--6--6--6-|
G|-0--0--0--0--0--0--0--0--0--0--0--0--0--0--0--0-|


Work with it and let me know what you think. The tuning really helps a lot.

guest
You may want to rate the tab now too:
select rating
Wanna post a correction for this tab? Suggest correction