Oops, an error
Loading. Please wait.

Entirely Different Matters Tab

version 3
version 3

Whole song

13 views 1 this week
no commentswrite comment
1 2 3 4 5
2 more votes to show rating
add to favorites
launch autoscroll
font size
0
reset
how to read this tab
guitar tuner
Autoscroll
slow
fast
+/-
esc
set tempo
stop
Help us to improve Ultimate-Guitar.com Take our survey!
×
Author
Difficulty
intermediate
About this tab version
Added measures, added parts missing in other versions. Was this info helpful? Yes No
'Entirely Different Matters', from 'New Plastic Ideas' (1994). Play with downstrokes only and massive amounts 
of distortion.

[Main riff]
E|-------------------------|-------------------------|
B|-------------------------|-------------------------|
G|--------2--------2-------|-------------------4-----|
D|--4--4--2--4--4--2--4--2-|-------------0--1--2-----|
A|--4--4-----4--4-----4--2-|-------2--------------2--|
E|-------------------------|-3--3-----5--------------|
play 8 times

[Verse 1]
E|--------------|---------------|---------------|---------------|
B|--------0-----|---------0-----|---------0-----|---------0-----|
G|--------0-----|---------0-----|---------0-----|---------0-----|
D|-----2--------|------2--------|------2--------|------2--------|
A|--4-----------|---4-----------|---4-----------|---4-----------|
E|-----------3--|------------3--|------------3--|------------3--|

first time
E|--------------|---------------|
B|--------------|---------------|
G|--2-2-2-2-2-2-|-9-9-9-9-7-7-7-|
D|--2-2-2-2-2-2-|-9-9-9-9-7-7-7-|
A|--4-4-4-4-4-4-|---------------|
E|--------------|---------------|

second time
E|--------------|---------------|
B|--------------|---------------|
G|--2-2-2-2-2-2-|-9-9-9-9-7-7-6-|
D|--2-2-2-2-2-2-|-9-9-9-9-7-7-6-|
A|--4-4-4-4-4-4-|---------------|
E|--------------|---------------|

note: Strangely, the first chorus has a slightly different riff than the main riff. 
The second chorus utilizes the normal main riff. 

[Chorus]
E|-------------------------|------------------------|
B|-------------------------|------------------------|
G|--------2--------2-------|-------5----------------|
D|--4--4--2--4--4--2--4--2-|-7--7--5--7-------------|
A|--4--4-----4--4-----4--2-|-7--7-----7--------5----|
E|-------------------------|-------------6--6-----6-|
play 4 times

[Verse 2]
E|--------------|---------------|---------------|---------------|
B|--------0-----|---------0-----|---------0-----|---------0-----|
G|--------0-----|---------0-----|---------0-----|---------0-----|
D|-----2--------|------2--------|------2--------|------2--------|
A|--4-----------|---4-----------|---4-----------|---4-----------|
E|-----------3--|------------3--|------------3--|------------3--|

first time
E|--------------|---------------|
B|--------------|---------------|
G|--2-2-2-2-2-2-|-9-9-9-9-7-7-7-|
D|--2-2-2-2-2-2-|-9-9-9-9-7-7-7-|
A|--4-4-4-4-4-4-|---------------|
E|--------------|---------------|

second time
E|--------------|---------------|
B|--------------|---------------|
G|--2-2-2-2-2-2-|-9-9-9-9-7-7-6-|
D|--2-2-2-2-2-2-|-9-9-9-9-7-7-6-|
A|--4-4-4-4-4-4-|---------------|
E|--------------|---------------|

[Chorus]
E|-------------------------|-------------------------|
B|-------------------------|-------------------------|
G|--------2--------2-------|-------------------4-----|
D|--4--4--2--4--4--2--4--2-|-------------0--1--2-----|
A|--4--4-----4--4-----4--2-|-------2--------------2--|
E|-------------------------|-3--3-----5--------------|
play 8 times

[Outro] (slow down slightly towards the last measure)
E|-----------------|-----------------|-----------------|-----------------|---
B|-----------------|-----------------|-----------------|-----------------|---
G|-----------------|-----------------|-----------------|-----------------|---
D|-----------------|-----------------|-----------------|---------5-5-6-6-|-3-
A|-----5-----5-----|-5-----5-----5---|-----4-----4-----|-----3-3---------|-2-
E|-6-6---6-6---6-6-|---6-6---6-6---6-|-5-5---5-5---5-5-|-4-4-------------|-3-
Suggest correction
Give kudos to tab author, rate the tab!
1 2 3 4 5
comments
print report bad tab
guest
You may want to rate the tab now too:
select rating
Wanna post a correction for this tab? Suggest correction