Oops, an error
Loading. Please wait.

Fiction Friction bass

by Unwound
52 views 1 this week
no commentswrite comment
1 2 3 4 5
3 more votes to show rating
add to favorites
×
Save as Personal and add changes to this tab that will be seen only by you. Learn more ›
×
You can save this tab as Personal to edit and correct it or add notes. All changes will be seen only by you. Learn more »
launch autoscroll
font size
0
reset
guitar tuner
edit
Autoscroll
slow
fast
+/-
esc
set tempo
stop
Author
Difficulty
Be sure to pay attention to the dynamics of this song. The preverses, verses, and post choruses all contain
some very soft dynamics with some harder picking mixed in there, while the chorus contains stronger picking.


[False intro]

G|-----------------------------|
D|-----------------------------|
A|-----------------------------|
E|-----------------------------|

[Intro]
   W                  W                    W                  W
G|-------------------|------------------|-------------------|------------------|
D|-------------------|------------------|-------------------|------------------|
A|-------------------|------------------|-------------------|------------------|
E|-------------------|------------------|-------------------|------------------|


   H.            E E   H.             E   H        E  E  E   E  E  E  E  E  E  E  E
G|-------------------|------------------|------------------|------------------------|
D|-------------------|------------------|------------------|----5--5--5--5--5--5--5-|
A|-------------------|------------------|------------------|------------------------|
E|-8---------------8-|-10-------------3-|-5--------5--5--5-|-5----------------------|



[Pre-verse]

   H.           E  E  Q.        E   E   E   E   E   E  E  E  E  E  E  E  E   E  E  E  E  E  E  E  E
G|------------------|-----------------------------|------------------------|------------------------|
D|------------------|-----------------------------|------------------------|----5--5--5--5--5--5--5-| X2
A|------------------|-----------------------------|------------------------|------------------------|
E|-8--------------8-|-10--------10--10--10--10--3-|-5--5--5--5--5--5--5--5-|-5----------------------|



[verse] PLAY X3

   H         E  E  E  E    E  E  E  E  E  E   Q
G|----------------------|----------------------------|
D|----------------------|----------------------------|X2
A|----------------------|-----------------10--10-----|
E|-8--------p7--8--8--8-|-p7--8--8--8--8-------------|

   H        H         E   E   E   E   E   E   E   E
G|------------------|-------------------------------|
D|------------------|-------------------------------|
A|------------------|-------------------------------|
E|-5--------5-------|-----/--18--18--18--18--18--18-|



[Chorus] PLAY X4

    E   E   E   E   E   E   E   E    E    E   E   E    Q     E   E
G|--------------------------------|--------------------------------|
D|-16--16--16--16--16--16--16--16-|-16--/17--17--17--/19----19--19-|
A|--------------------------------|--------------------------------|
E|--------------------------------|--------------------------------|
    E   E   E   E   E   E   E   E    E   E   E   E   E   E   E   E
G|--------------------------------|--------------------------------|
D|-18--18--18--18--18--18--18--18-|-18--18--18--18--18--18--18--18-|
A|-19--19--19--19--19--19--19--19-|-19--19--19--19--19--19--19--19-|
E|--0---0---0---0---0---0---0---0-|--0---0---0---0---0---0---0---0-|


[Post-Chorus]
   W                 E  E  E  E  E  E  E  E
G|-----------------|------------------------|
D|-----------------|------------------------| X4
A|-----------------|------------------------|
E|-7~--------------|----5--3--0--3--5--7--8-|



[Chorus] PLAY X4

    E   E   E   E   E   E   E   E    E    E   E   E    Q     E   E
G|--------------------------------|--------------------------------|
D|-16--16--16--16--16--16--16--16-|-16--/17--17--17--/19----19--19-|
A|--------------------------------|--------------------------------|
E|--------------------------------|--------------------------------|
    E   E   E   E   E   E   E   E    E   E   E   E   E   E   E   E
G|--------------------------------|--------------------------------|
D|-18--18--18--18--18--18--18--18-|-18--18--18--18--18--18--18--18-|
A|-19--19--19--19--19--19--19--19-|-19--19--19--19--19--19--19--19-|
E|--0---0---0---0---0---0---0---0-|--0---0---0---0---0---0---0---0-|




[Post-Chorus]
   W                 E  E  E  E  E  E  E  E
G|-----------------|------------------------|
D|-----------------|------------------------| X4
A|-----------------|------------------------|
E|-7~--------------|----5--3--0--3--5--7--8-|


[Chorus] PLAY X4

    E   E   E   E   E   E   E   E    E    E   E   E    Q     E   E
G|--------------------------------|--------------------------------|
D|-16--16--16--16--16--16--16--16-|-16--/17--17--17--/19----19--19-|
A|--------------------------------|--------------------------------|
E|--------------------------------|--------------------------------|
    E   E   E   E   E   E   E   E    E   E   E   E   E   E   E   E
G|--------------------------------|--------------------------------|
D|-18--18--18--18--18--18--18--18-|-18--18--18--18--18--18--18--18-|
A|-19--19--19--19--19--19--19--19-|-19--19--19--19--19--19--19--19-|
E|--0---0---0---0---0---0---0---0-|--0---0---0---0---0---0---0---0-|


[CHORUS 2] PLAY X4

   E  E  E  E  E  E  E  E   E  E  E  E  E  E  E  E
G|------------------------|------------------------|
D|------------------------|----------------------0-|
A|-3--3--3--3--3--3--3--3-|-3--4--4--4--4--4--4----|
E|------------------------|------------------------|

   E  E  E  E  E  E  E  E   E  E  E  E  E  E  E  E
G|------------------------|------------------------|
D|-2--2--2--2--2--2--2--2-|-2--2--2--2--2--2--2--2-|
A|------------------------|------------------------|
E|------------------------|------------------------|


[Post-Chorus]
   W                 E  E  E  E  E  E  E  E
G|-----------------|------------------------|
D|-----------------|------------------------| X9
A|-----------------|------------------------|
E|-7~--------------|----5--3--0--3--5--7--8-|



************************************

| h   Hammer-on
| p   Pull-off
| ~   vibrato
| /   Slide up
| \   Slide down

************************************

W - whole
H - half
Q - quarter
E - 8th
S - 16th
. - note dotted

************************************

            
            
Suggest correction
Creating personal tab
Creating personal tab
You can edit any tab online and save it as your Personal.

You can edit, replace or remove any tab part or add personal notes – all changes will be seen only by you.

Personal tabs can be accessed anytime from any device, even offline.
Learn more »
Give kudos to tab author, rate the tab!
1 2 3 4 5
comments
print report bad tab
guest
You may want to rate the tab now too:
select rating
Wanna post a correction for this tab? Suggest correction