Oops, an error
Loading. Please wait.

Laszlo bass

by Unwound
70 views 1 this week
no commentswrite comment
1 2 3 4 5
3 more votes to show rating
add to favorites
×
Save as Personal and add changes to this tab that will be seen only by you. Learn more ›
×
You can save this tab as Personal to edit and correct it or add notes. All changes will be seen only by you. Learn more »
launch autoscroll
font size
0
reset
guitar tuner
edit
Autoscroll
slow
fast
+/-
esc
set tempo
stop
Author
Difficulty
ARTIST: Unwound
SONG: "Laszlo"
ALBUM: Empire (2015), Troubleman Mix-Tape (2001)



INTRO:
G|------------------------------------------------------------------------------------------------||
D|------------------------------------------------------------------------------------------------|| x 2
A|------------------------------------------------------------------------------------------------||
E|------------------------------------------------------------------------------------------------||
+
G|------------------------------------------------------------------------------------------------||
D|-------------------------4-----------5-----------------------------------4-----------5----------|| x 2
A|-0-----0-----#-----0--#--------------------------0-----0-----#-----0--#-------------------------||
E|------------------------------------------------------------------------------------------------||



VERSE:
G|------------------------------------------------------------------------------------------------||
D|-------------------------4-----------5-----------------------------------4-----------5----------|| x 4
A|-0-----0-----#-----0--#--------------------------0-----0-----#-----0--#-------------------------||
E|------------------------------------------------------------------------------------------------||
+
G|------------------------------------------------------------------------------------------------|
D|-5-----5-----5-----5--5--5-----5-----5-----5--5--5-----5-----5-----5--5--5-----5-----5-----5----|
A|------------------------------------------------------------------------------------------------|
E|------------------------------------------------------------------------------------------------|



PRE-CHORUS:
G|------------------------------------------------------------------------------------------------|
D|-------------7-----5-----------------------------------------------------7-----5----------------|
A|-0-----0--#--------------------0-----0-----0-----5-h6--0-----5----h7-----------------------0----|
E|------------------------------------------------------------------------------------------------|
+
G|------------------------------------------------------------------------------------------------|
D|-------------------------------------7-----5----------------------------------------------------|
A|-0-----0-----5-h6--0-----5----h7-----------------------0-----0-----0-----5-h6--0-----5----h7----|
E|------------------------------------------------------------------------------------------------|
+
G|------------------------------------------------------------------------------------------------|
D|-7-----5-----------------------------------------------------7-----5----------------------------|
A|-------------------0-----0-----0-----5-h6--0-----5----h7-----------------------0-----0-----0----|
E|------------------------------------------------------------------------------------------------|
+
G|------------------------------------------------------------------------------------------------|
D|-------------------------7-----5-----------------------------------------------------7-----5----|
A|-5-h6--0-----5----h7-----------------------0-----0-----0-----5-h6--0-----5----h7----------------|
E|------------------------------------------------------------------------------------------------|
+
G|------------------------------------------------------------------------------------------------|
D|-------------------------------------------------7-----5----------------------------------------|
A|-------0-----0-----0-----5-h6--0-----5----h7-----------------------0-----0-----0-----5-h6--0----|
E|------------------------------------------------------------------------------------------------|
+
G|------------------------------------------------------------------------------------------------|
D|-------------7-----------------------7-----------------------5-----------------------5----------|
A|-5----h7-----------------7-----7-----------------5-----5-----------------5-----5----------------|
E|------------------------------------------------------------------------------------------------|
+
G|------------------------------------------------------------------------------------------------|
D|-------------3-----------------------3----------------------------------------------------------|
A|-3-----3-----------------3-----3-----------------2-----2-----2-----2-----2-----2-----2-----2----|
E|------------------------------------------------------------------------------------------------|



CHORUS I:
G|------------------------------------------------------------------------------------------------|
D|------------------------------------------------------------------------------------------------|
A|-0-----0-----#-----0-----0-----0-----0-----0-----5-----5-----#-----5-----5-----5-----5-----5----|
E|------------------------------------------------------------------------------------------------|
+
G|------------------------------------------------------------------------------------------------|
D|------------------------------------------------------------------------------------------------|
A|-5-----5-----#-----5-----5-----5-----5-----5-----6-----6-----#-----6-----6-----6-----6-----6----|
E|------------------------------------------------------------------------------------------------|
+
G|------------------------------------------------------------------------------------------------|
D|------------------------------------------------------------------------------------------------|
A|-0-----0-----#-----0-----0-----0-----0-----0-----5-----5-----#-----5-----5-----5-----5-----5----|
E|------------------------------------------------------------------------------------------------|
+
G|------------------------------------------------------------------------------------------------|
D|------------------------------------------------------------------------------------------------|
A|-5-----5-----#-----5-----5-----5-----5-----5-----6-----6-----#-----6-----6-----6-----6-----6----|
E|------------------------------------------------------------------------------------------------|
+
G|------------------------------------------------------------------------------------------------|
D|-------------------7-----------------------------5-/6-/7----------------------------------------|
A|-0-----#----------------------------------------------------------------------------------------|
E|------------------------------------------------------------------------------------------------|
+
G|------------------------------------------------------------------------------------------------|
D|-5-/6-/7-----------------------------------------7-----7-----7-----7--7--------7-----7\---------|
A|-------------------------------------------0--#-------------------------------------------------|
E|------------------------------------------------------------------------------------------------|



CHORUS II:
G|------------------------------------------------------------------------------------------------|
D|------------------------------------------------------------------------------------------------|
A|-0-----0-----#-----0-----0-----0-----0-----0-----5-----5-----#-----5-----5-----5-----5-----5----|
E|------------------------------------------------------------------------------------------------|
+
G|------------------------------------------------------------------------------------------------|
D|------------------------------------------------------------------------------------------------|
A|-5-----5-----#-----5-----5-----5-----5-----5-----6-----6-----#-----6-----6-----6-----6-----6----|
E|------------------------------------------------------------------------------------------------|
+
G|------------------------------------------------------------------------------------------------|
D|------------------------------------------------------------------------------------------------|
A|-0-----0-----#-----0-----0-----0-----0-----0-----5-----5-----#-----5-----5-----5-----5-----5----|
E|------------------------------------------------------------------------------------------------|
+
G|------------------------------------------------------------------------------------------------|
D|------------------------------------------------------------------------------------------------|
A|-5-----5-----#-----5-----5-----5-----5-----5-----6-----6-----#-----6-----6-----6-----6-----6----|
E|------------------------------------------------------------------------------------------------|
+
G|------------------------------------------------------------------------------------------------|
D|------------------------------------------------------------------------------------------------|
A|-0-----0-----#-----0-----0-----0-----0-----0-----5-----5-----#-----5-----5-----5-----5-----5----|
E|------------------------------------------------------------------------------------------------|
+
G|------------------------------------------------------------------------------------------------|
D|------------------------------------------------------------------------------------------------|
A|-5-----5-----#-----5-----5-----5-----5-----5-----6-----6-----#-----6-----6-----6-----6-----6----|
E|------------------------------------------------------------------------------------------------|
+
G|------------------------------------------------------------------------------------------------|
D|------------------------------------------------------------------------------------------------|
A|-0-----0-----#-----0-----0-----0-----0-----0-----5-----5-----#-----5-----5-----5-----5-----5----|
E|------------------------------------------------------------------------------------------------|
+
G|------------------------------------------------------------------------------------------------|
D|------------------------------------------------------------------------------------------------|
A|-5-----5-----#-----5-----5-----5-----5-----5-----6-----6-----#-----6-----6-----6-----6-----6----|
E|------------------------------------------------------------------------------------------------|
+
G|------------------------------------------------------------------------------------------------|
D|-------------------------------------------------5-/6-/7----------------------------------------|
A|-0-----#----------------------------------------------------------------------------------------|
E|------------------------------------------------------------------------------------------------|
+
G|------------------------------------------------------------------------------------------------|
D|-5-/6-/7-----------------------------------------7-----7-----7-----7--7--------7-----7\---------|
A|------------------------------------------------------------------------------------------------|
E|------------------------------------------------------------------------------------------------|



INTERLUDE:
G|------------------------------------------------------------------------------------------------||
D|-------------------------4-----------5-----------------------------------4-----------5----------|| x 4
A|-0-----0-----#-----0--#--------------------------0-----0-----#-----0--#-------------------------||
E|------------------------------------------------------------------------------------------------||



BRIDGE:
G|------------------------------------------------------------------------------------------------|
D|------------------------------------------------------------------------------------------------|
A|-0-----0-----0-----0-----0-----0-----0-----0-----0-----0-----0-----0-----0-----0-----0-----0----|
E|------------------------------------------------------------------------------------------------|
+
G|------------------------------------------------------------------------------------------------|
D|------------------------------------------------------------------------------------------------|
A|-3-----3-----3-----3-----3-----3-----3-----3-----3-----3-----3-----3-----3-----3-----3-----3----|
E|------------------------------------------------------------------------------------------------|
+
G|------------------------------------------------------------------------------------------------|
D|-7-----7-----7-----7-----7-----#-----------------7-----7-----7-----7-----7-----#----------------|
A|-0-----0-----0-----0-----0-----0-----0-----0-----0-----0-----0-----0-----0-----0-----0-----0----|
E|------------------------------------------------------------------------------------------------|
+
G|------------------------------------------------------------------------------------------------|
D|------------------------------------------------------------------------------------------------|
A|-3-----3-----3-----3-----3-----3-----3-----3-----3-----3-----3-----3-----3-----3-----3-----5----|
E|------------------------------------------------------------------------------------------------|
+
G|------------------------------------------------------------------------------------------------|
D|------------------------------------------------------------------------------------------------|
A|-0-----0-----0-----0-----0-----0-----0-----0-----0-----0-----0-----0-----0-----0-----0-----0----|
E|------------------------------------------------------------------------------------------------|
+
G|------------------------------------------------------------------------------------------------|
D|------------------------------------------------------------------------------------------------|
A|-3-----3-----3-----3-----3-----3-----3-----3-----3-----3-----3-----3-----3-----3-----3-----3----|
E|------------------------------------------------------------------------------------------------|
+
G|------------------------------------------------------------------------------------------------|
D|-7-----7-----7-----7-----7\----------------------7-----7-----7-----7-----7----------------------|
A|-0-----0-----0-----0-----0-----0-----0-----0-----0-----0-----0-----0-----0-----0-----0-----0----|
E|------------------------------------------------------------------------------------------------|
+
G|------------------------------------------------------------------------------------------------|
D|------------------------------------------------------------------------------------------------|
A|-3-----3-----3-----3-----3-----3-----3-----3-----3-----3-----3-----3-----3-----3-----3-----5----|
E|------------------------------------------------------------------------------------------------|



OUTRO:
G|------------------------------------------------------------------------------------------------|
D|------------------------------------------------------------------------------------------------|
A|-0-----0-----0-----0--0--0-----0-----0-----0--0--0-----0-----0-----0--0--0-----0-----0-----0--0-|
E|------------------------------------------------------------------------------------------------|
+
G|------------------------------------------------------------------------------------------------|
D|------------------------------------------------------------------------------------------------|
A|-3-----3-----3-----3--3--3-----3-----3-----3--3--3-----3-----3-----3--3--3-----3-----3-----3--3-|
E|------------------------------------------------------------------------------------------------|
+
G|------------------------------------------------------------------------------------------------|
D|-7-----7-----7-----7--7--7-----7-----7-----7--7--7-----7-----7-----7--7--7-----7-----7-----7--7-|
A|-0-----0-----0-----0--0--0-----0-----0-----0--0--0-----0-----0-----0--0--0-----0-----0-----0--0-|
E|------------------------------------------------------------------------------------------------|
+
G|------------------------------------------------------------------------------------------------|
D|------------------------------------------------------------------------------------------------|
A|-5-----5-----5-----5--5--5-----5-----5-----5--5--5-----5-----5-----5--5--5-----7-----8-----7----|
E|------------------------------------------------------------------------------------------------|
+
G|------------------------------------------------------------------------------------------------|
D|------------------------------------------------------------------------------------------------|
A|-0-----0-----0-----0--0--0-----0-----0-----0--0--0-----0-----0-----0--0--0-----0-----0-----0--0-|
E|------------------------------------------------------------------------------------------------|
+
G|------------------------------------------------------------------------------------------------|
D|------------------------------------------------------------------------------------------------|
A|-3-----3-----3-----3--3--3-----3-----3-----3--3--3-----3-----3-----3--3--3-----3-----3-----3--3-|
E|------------------------------------------------------------------------------------------------|
+
G|------------------------------------------------------------------------------------------------|
D|-7-----7-----7-----7--7--7-----7-----7-----7--7--7-----7-----7-----7--7--7-----7-----7-----7--7-|
A|-0-----0-----0-----0--0--0-----0-----0-----0--0--0-----0-----0-----0--0--0-----0-----0-----0--0-|
E|------------------------------------------------------------------------------------------------|
+
G|------------------------------------------------------------------------------------------------|
D|------------------------------------------------------------------------------------------------|
A|-5-----5-----5-----5--5--5-----5-----5-----5--5--5-----5-----5-----5--5--5-----7-----8-----7----|
E|------------------------------------------------------------------------------------------------|
+
G|------------------------------------------------------------------------------------------------|
D|------------------------------------------------------------------------------------------------|
A|-0-----0-----0-----0--0--0-----0-----0-----0--0--0-----0-----0-----0--0--0-----0-----0-----0--0-|
E|------------------------------------------------------------------------------------------------|
+
G|------------------------------------------------------------------------------------------------|
D|------------------------------------------------------------------------------------------------|
A|-3-----3-----3-----3--3--3-----3-----3-----3--3--3-----3-----3-----3--3--3-----3-----3-----3--3-|
E|------------------------------------------------------------------------------------------------|
+
G|------------------------------------------------------------------------------------------------|
D|-7-----7-----7-----7--7--7-----7-----7-----7--7--7-----7-----7-----7--7--7-----7-----7-----7--7-|
A|-0-----0-----0-----0--0--0-----0-----0-----0--0--0-----0-----0-----0--0--0-----0-----0-----0--0-|
E|------------------------------------------------------------------------------------------------|
+
G|------------------------------------------------------------------------------------------------|
D|------------------------------------------------------------------------------------------------|
A|-5-----5-----5-----5--5--5-----5-----5-----5--5--5-----5-----5-----5--5--5-----7-----8-----7----|
E|------------------------------------------------------------------------------------------------|
+
G|------------------------------------------------------------------------------------------------|
D|------------------------------------------------------------------------------------------------|
A|-0-----0-----0-----0--0--0-----0-----0-----0--0--0-----0-----0-----0--0--0-----0-----0-----0--0-|
E|------------------------------------------------------------------------------------------------|
+
G|------------------------------------------------------------------------------------------------|
D|------------------------------------------------------------------------------------------------|
A|-3-----3-----3-----3--3--3-----3-----3-----3--3--3-----3-----3-----3--3--3-----3-----3-----3--3-|
E|------------------------------------------------------------------------------------------------|
+
G|------------------------------------------------------------------------------------------------|
D|-7-----7-----7-----7--7--7-----7-----7-----7--7--7-----7-----7-----7--7--7-----7-----7-----7--7-|
A|-0-----0-----0-----0--0--0-----0-----0-----0--0--0-----0-----0-----0--0--0-----0-----0-----0--0-|
E|------------------------------------------------------------------------------------------------|
+
G|------------------------------------------------------------------------------------------------|
D|------------------------------------------------------------------------------------------------|
A|-5-----5-----5-----5--5--5-----5-----5-----5--5--5-----5-----5-----5--5--5-----7-----8-----7----|
E|------------------------------------------------------------------------------------------------|
+
G|------------------------------------------------------------------------------------------------|
D|------------------------------------------------------------------------------------------------|
A|-0-----0-----0-----0--0--0-----0-----0-----0--0--0-----0-----0-----0--0--0-----0-----0-----0--0-|
E|------------------------------------------------------------------------------------------------|
+
G|------------------------------------------------------------------------------------------------|
D|------------------------------------------------------------------------------------------------|
A|-3-----3-----3-----3--3--3-----3-----3-----3--3--3-----3-----3-----3--3--3-----3-----3-----3--3-|
E|------------------------------------------------------------------------------------------------|
+
G|------------------------------------------------------------------------------------------------|
D|-7-----7-----7-----7--7--7-----7-----7-----7--7--7-----7-----7-----7--7--7-----7-----7-----7--7-|
A|-0-----0-----0-----0--0--0-----0-----0-----0--0--0-----0-----0-----0--0--0-----0-----0-----0--0-|
E|------------------------------------------------------------------------------------------------|
+
G|------------------------------------------------------------------------------------------------|
D|------------------------------------------------------------------------------------------------|
A|-5-----5-----5-----5-----5-----5-----5-----5-----5-----5-----5-----5-----5-----7-----8-----7----|
E|------------------------------------------------------------------------------------------------|
+
G|------------------------------------------------------------------------------------------------|
D|------------------------------------------------------------------------------------------------|
A|-0----------------------------------------------------------------------------------------------|
E|------------------------------------------------------------------------------------------------|



SONG STRUCTURE:

INTRO
VERSE
PRE-CHORUS
CHORUS I
VERSE
PRE-CHORUS
CHORUS II
INTERLUDE
BRIDGE
OUTRO



That's it.  Please feel free to leave any comments, questions, or requests.
Cheers!
-Bennyshambles78-



            
            
Suggest correction
Creating personal tab
Creating personal tab
You can edit any tab online and save it as your Personal.

You can edit, replace or remove any tab part or add personal notes – all changes will be seen only by you.

Personal tabs can be accessed anytime from any device, even offline.
Learn more »
Give kudos to tab author, rate the tab!
1 2 3 4 5
comments
print report bad tab
guest
You may want to rate the tab now too:
select rating
Wanna post a correction for this tab? Suggest correction