Oops, an error
Loading. Please wait.

Laugh Track tab

by Unwound
584 views 6 this week
2 commentsread comments
1 2 3 4 5
1 last vote to show rating
add to favorites
×
Save as Personal and add changes to this tab that will be seen only by you. Learn more ›
×
You can save this tab as Personal to edit and correct it or add notes. All changes will be seen only by you. Learn more »
launch autoscroll
font size
0
reset
how to read this tab
guitar tuner
edit
Autoscroll
slow
fast
+/-
esc
set tempo
stop
Author
Difficulty
ARTIST: Unwound
SONG: "Laugh Track"
ALBUM: Challenge for a Civilized Society (1998)



TUNING: Standard



INTRO:
e|------------------------------------------------------------------------------------------------|
B|------------------------------------------------------------------------------------------------|
G|-------------------------------------------3p2p0------------------------------------------------|
D|-------------8-----8-h9\-------------4-----------------------------------------2--2-------------|
A|-7--7-----7-----7--------3--3-----3-----3--------1--1-----1--2--2-----2--2--1-------------------|
E|-------------------------------------------------------------------------------------1--1--1----|



VERSE:
e|------------------------------------------------------------------------------------------------|
B|-7--7--------7--7--------7--7--------7--7--------7--7--------7--7--------7--7--------8--8-------|
G|-0--0--------0--0--------0--0--------0--0--------0--0--------0--0--------0--0--------0--0-------|
D|-x--x--------x--x--------x--x--------x--x--------x--x--------x--x--------x--x--------x--x-------|
A|-7--7--------7--7--------7--7--------7--7--------7--7--------7--7--------7--7--------7--7-------|
E|------------------------------------------------------------------------------------------------|



CHORUS:
e|-------12-12-------12-12-------12-12-------12-12||
B|-------15-15-------15-15-------15-15-------15-15||
G|-------12-12-------12-12-------12-12-------12-12|| x 4
D|------------------------------------------------||
A|------------------------------------------------||
E|------------------------------------------------||
+
e|-------7--7--------7--7--------7--7--------7--7-||
B|-------x--x--------x--x--------x--x--------x--x-||
G|-------7--7--------7--7--------7--7--------7--7-|| x 2
D|------------------------------------------------||
A|------------------------------------------------||
E|------------------------------------------------||



BRIDGE:
e|------------------------------------------------||
B|-------------------------------7----------------||
G|----------------3--2-p0-------------------------|| x 3
D|-------4----------------------------------------||
A|-3-----------3----------/7-----------7--5-\3-h5-||
E|------------------------------------------------||
+
e|------------------------------------------------|
B|-------------------------------7----------------|
G|----------------3--2-p0-------------------------|
D|-------4----------------------------------------|
A|-3-----------3----------/7-----------7--5--5----|
E|------------------------------------------------|



CHORUS LEAD I:
e|-------12---------------------------------------|
B|-----------------15--------14--------------14h15|
G|------------------------------------------------|
D|------------------------------------------------|
A|------------------------------------------------|
E|------------------------------------------------|
+
e|------------------------------------------------|
B|\12---------------------------------------------|
G|------------------------------------------------|
D|------------------------------------------------|
A|------------------------------------------------|
E|------------------------------------------------|



CHORUS LEAD II:
e|------------------------------------------------|
B|------------------------------------------------|
G|-------14--------12--------11--------------11h12|
D|------------------------------------------------|
A|------------------------------------------------|
E|------------------------------------------------|
+
e|------------------------------------------------|
B|------------------------------------------------|
G|\8----------------------------------------------|
D|------------------------------------------------|
A|------------------------------------------------|
E|------------------------------------------------|



FINAL BAR:
e|------------------------------------------------|
B|-7--7-------------------------------------------|
G|-x--x-------------------------------------------|
D|-x--x-------------------------------------------|
A|-7--7-------------------------------------------|
E|------------------------------------------------|



SONG STRUCTURE:
INTRO x 4
VERSE x 2
CHORUS
BRIDGE
VERSE x 2
CHORUS
INTRO x 4
VERSE x 2
CHORUS with LEAD I x 2 + LEAD II
BRIDGE x 2 (with unknown lead low in mix)
FINAL BAR



That's it.  Please leave any comments, questions, or requests.  Cheers!
-Bennyshambles78-


Suggest correction
Creating personal tab
Creating personal tab
You can edit any tab online and save it as your Personal.

You can edit, replace or remove any tab part or add personal notes – all changes will be seen only by you.

Personal tabs can be accessed anytime from any device, even offline.
Learn more »
Give kudos to tab author, rate the tab!
1 2 3 4 5
comments
print report bad tab
2 comments total.
0 reply
bennyshambles78 4,121 Mar 10, 2012 05:00 PM

I made a slight typo in the chorus. 
This:
|-----12-12----
|-----15-15----
|-----12-15----
|--------------
|--------------
|--------------

Should be this:
|-----12-12----
|-----15-15----
|-----12-12----
|--------------
|--------------
|--------------

0 reply
bennyshambles78 4,121 Feb 04, 2014 08:09 AM

Here are a few corrections I've discovered down the road since I've posted this:

Verse (00:26)
[staccato]
e|--------------------------------------------------------------------|
B|--7-7-----7-7------7-7------7-7------7-7-----7-7-----7-7-----8-8----|
G|--0-0-----0-0------0-0------0-0------0-0-----0-0-----0-0-----0-0----|
D|--x-x-----x-x------x-x------x-x------x-x-----x-x-----x-x-----x-x----|
A|--7-7-----7-7------7-7------7-7------7-7-----7-7-----7-7-----7-7----|
E|--------------------------------------------------------------------|
"you should have gone to the doctor..."

And this slight change for the second part of the chorus.
I noticed it watching Trosper play it at their last show on YouTube:

Chorus cont.
|-----7--7-----7--7-----7--7-----7--7-----|
|-----x--x-----x--x-----x--x-----x--x-----|
|-----7--7-----7--7-----7--7-----7--7-----|
|-----------------------------------------|
|-----------------------------------------|
|-----------------------------------------|

Other than those updates, this is golden.

guest
You may want to rate the tab now too:
select rating
Wanna post a correction for this tab? Suggest correction