Oops, an error
Loading. Please wait.

Meet The Plastics tab

by Unwound
377 views 1 this week
no commentswrite comment
1 2 3 4 5
x 3
add to favorites
×
Save as Personal and add changes to this tab that will be seen only by you. Learn more ›
×
You can save this tab as Personal to edit and correct it or add notes. All changes will be seen only by you. Learn more »
launch autoscroll
font size
0
reset
how to read this tab
guitar tuner
edit
Autoscroll
slow
fast
+/-
esc
set tempo
stop
Artist: Unwound
Song: "Meet the Plastics"
Album: Challenge for a Civilized Society (1998)



Tuning: Standard (recorded with the tape slowed down, so the standard tuning is very flat, almost a half step down from standard)



Intro:
e|------------------------|
B|------------------------|
G|-4-p3-p0-----3-p2-p0----|
D|------------------------|
A|------------------------|
E|------------------------|



Verse:
e|------------------------------------------------||
B|-------0-----------0----------------------------||
G|-------4----(4)-4--4--------4--3~p0-----3--2~p0-|| x 4
D|-------3-----3-(3)(3)---------------------------||
A|------------------------------------------------||
E|----------------------4--------------3----------||
+
e|-------------0-----0----------------------------||
B|-------4b----4b---r4----------------------------||
G|-------4b----4b-4-r4--------4--3~p0-----3--2~p0-|| x 4
D|-------3--------3-------------------------------||
A|------------------------------------------------||
E|----------------------4--------------3----------||



Chorus:
e|------------------------------------------------|
B|-------12-10(10)---10----------8-----------8----|
G|-------------12b---------------0-----------0----|
D|-------------------------------------5-/6-----6-|
A|-0-----------------------7----------------------|
E|------------------------------------------------|



Bridge:
e|------------------------------------------------|
B|-------0-----------0-----------0-----------0----|
G|-------4-----------4-----------4-----------4----|
D|-------------------4-----------5-----------0----|
A|------------------------------------------------|
E|------------------------------------------------|
+
e|------------------------------------------------|
B|/8-----8-----8--8-----8--8-----8--8--8--8--8--8-|
G|-x-----x-----x--x-----x--x-----x--x--x--9--9--9-|
D|/7-----7-----7--7--7--7-h9-----9--9--9--9--9--9-|
A|------------------------------------------------|
E|------------------------------------------------|



Bridge Outro:
e|------------------------------------------------|
B|---0-----------------------3--------------------|
G|--8-----------------------4---------------------|
D|-9-----------------------5----------------------|
A|------------------------------------------------|
E|------------------------------------------------|
+
e|------------------------------------------------|
B|---6--------------------------------------------|
G|--0----------------------4-p3-p0-----3-p2-p0----|
D|-8----------------------------------------------|
A|------------------------------------------------|
E|------------------------------------------------|



Intro
Verse
Chorus x 4
Verse
Chorus x 4
Bridge x 4
Bridge Outro
Verse
Chorus x 4
Abrupt End (organ swell fades out)



That's it.  Please leave any comments, questions, or requests.  Cheers!
-Bennyshambles78-



            
            
Suggest correction
Creating personal tab
Creating personal tab
You can edit any tab online and save it as your Personal.

You can edit, replace or remove any tab part or add personal notes – all changes will be seen only by you.

Personal tabs can be accessed anytime from any device, even offline.
Learn more »
Give kudos to tab author, rate the tab!
1 2 3 4 5
comments
print report bad tab
guest
You may want to rate the tab now too:
select rating
Wanna post a correction for this tab? Suggest correction