Oops, an error
Loading. Please wait.

No Tech Tab

167 views 1 this week
no commentswrite comment
1 2 3 4 5
please rate
add to favorites
launch autoscroll
font size
0
reset
how to read this tab
guitar tuner
Tab Pro tools
  • play this tab
  • loop segment
  • change instrument
  • show fretboard
  • metronome
Autoscroll
slow
fast
+/-
esc
set tempo
stop
Contributor
Difficulty
intermediate
Artist: Unwound
Song: "NO TECH!"
Album: Challenge for a Civilized Society (1998)



standard tuning



Intro:
e|------------------------------------------------|
B|------------------------------------------------|
G|------------------------------------------------|
D|-0-h2--------------------0-h2-------------------|
A|------------------------------------------------|
E|------------------------------------------------|



Verse:
e|------------------------------------------------|
B|------------------------------------------------|
G|------------------------------------------------|
D|-2~p0-----5--------------2~p0--2-/5-------------|
A|-------------6-\3~p0-----------------6-\3~p0----|
E|------------------------------------------------|



Chorus:
e|------------------------------------------------|
B|-------3-----------3-----------3-----------3----|
G|------------------------------------------------|
D|------------------------------------------------|
A|-3~p0--------3~p0--------3~p0--------3~p0-------|
E|------------------------------------------------|



Refrain:
e|------------------------------------------------|
B|------------------------------------------------|
G|-4--------2~-------------4-------/7~------------|
D|----5-----------------------5-------------------|
A|------------------------------------------------|
E|------------------------------------------------|
+
e|------------------------------------------------|
B|------------------------------------------------|
G|-4--------2-----3~-------4-------/7~------------|
D|----5-----------------------5-------------------|
A|------------------------------------------------|
E|------------------------------------------------|



Coda:
e|------------------------------------------------|
B|----------3-----------------------3-------------|
G|----------0-----------------------0-------------|
D|-2~p0-----0--------------2~p0-----0-------------|
A|-------3-----------------------3----------------|
E|------------------------------------------------|



Song structure:
Intro x 1
Verse x 4
Chorus x 4
Refrain x 2
Verse x 4
Chorus x 2
Refrain x 2
Verse x 4
Coda x 4



That's it.  This is a really fun one to play and surprisingly very simple.
Please leave any comments, questions, requests.  Cheers!
-Bennyshambles78-


comments
We did not receive enough feedback on this tab! Please rate:
print report bad tab
1 2 3 4 5
I want to post or [tab]
guest
You may want to rate the tab now too:
select rating
Please do not post tabs as comments. Select "correction" instead!