Oops, an error
Loading. Please wait.

Summer Freeze bass

by Unwound
107 views 1 this week
no commentswrite comment
1 2 3 4 5
3 more votes to show rating
add to favorites
×
Save as Personal and add changes to this tab that will be seen only by you. Learn more ›
×
You can save this tab as Personal to edit and correct it or add notes. All changes will be seen only by you. Learn more »
launch autoscroll
font size
0
reset
guitar tuner
edit
Autoscroll
slow
fast
+/-
esc
set tempo
stop
Author
Difficulty
ARTIST: Unwound
SONG: "Summer Freeze"
ALBUM: Leaves Turn Inside You (2001)



INTRO:
G|------------------------------------------------------------------------------------------------|
D|------------------------------------------------------------------------------------------------|
A|------------------------------------------------------------------------------------------------|
E|------------------------------------------------------------------------------------------------|
+
G|------------------------------------------------------------------------------------------------||
D|-9-h10----10-9-h10----10-9-h10----10-9-h10-------8-p7-----7--8-p7-----7--8-p7-----7--8-p7-----7-|| x 3
A|------------------------------------------------------------------------------------------------||
E|------------------------------------------------------------------------------------------------||
+
G|------------------------------------------------------------------------------------------------|
D|-6-----------6-----------6-----------6-----------5-----------5-----------5-----------5--------5-|
A|------------------------------------------------------------------------------------------------|
E|------------------------------------------------------------------------------------------------|
+
G|------------------------------------------------------------------------------------------------|
D|/7--7--7--7--7--7--7--7--7--7--7--7--7--7--7--7--7--7--7--7--7--7--7--7--7--7--7--7--7--7--7--7-|
A|------------------------------------------------------------------------------------------------|
E|------------------------------------------------------------------------------------------------|



VERSE:
G|------------------------------------------------------------------------------------------------||
D|-5--5--5--5--5--5--5--5--5--5--5--5--5--5--5--5--6--6--6--6--6--6--6--6--6--6--6--6--6--6--6--6-|| x 4
A|------------------------------------------------------------------------------------------------||
E|------------------------------------------------------------------------------------------------||



PRE-CHORUS:
G|------------------------------------------------------------------------------------------------|
D|-------------------------------------------11-\-------------------------------------------------|
A|-0-----------4-----------0-----------4--/--------0----------\4-----------4-/5--------5-/7--7----|
E|------------------------------------------------------------------------------------------------|



CHORUS I:
G|------------------------------------------------------------------------------------------------|
D|-7-/8-/10----------------7-/8-/10----------------5--------5--5--------5--5--------5--5-----5-/7-|
A|-------------7-----------------------7----------------------------------------------------------|
E|------------------------------------------------------------------------------------------------|
+
G|------------------------------------------------------------------------------------------------|
D|------------------------------------------------------------------------------------------------|
A|-0-----0-----0-----0-----0-----------0-----------3-----------3--------3-----3--3-----3-/5--5-/7-|
E|------------------------------------------------------------------------------------------------|
+
G|------------------------------------------------------------------------------------------------|
D|-7-/8-/10----------------7-/8-/10----------------5--------5--5--------5--5--------5--5-----5-/7-|
A|-------------7-----------------------7----------------------------------------------------------|
E|------------------------------------------------------------------------------------------------|
+
G|------------------------------------------------------------------------------------------------|
D|------------------------------------------------------------------------------------------------|
A|-0-----0-----0-----0-----0-----------0-----------3-----------3--------3-----3--3-----3-/5--5-/7-|
E|------------------------------------------------------------------------------------------------|
+
G|------------------------------------------------------------------------------------------------|
D|-7-/8-/10----------------7-/8-/10----------------5--------5--5--------5--5--------5--5-----5-/7-|
A|-------------7-----------------------7----------------------------------------------------------|
E|------------------------------------------------------------------------------------------------|
+
G|------------------------------------------------------------------------------------------------|
D|------------------------------------------------------------------------------------------------|
A|-0-----0-----0-----0-----0-----------0-----------3-----------3--------3-----3--3-----3-/5--5-/7-|
E|------------------------------------------------------------------------------------------------|



CHORUS II:
G|------------------------------------------------------------------------------------------------|
D|-7-/8-/10----------------7-/8-/10----------------5-----------5--------5--5--------5--5-----5----|
A|-------------7-----------------------7----------------------------------------------------------|
E|------------------------------------------------------------------------------------------------|
+
G|------------------------------------------------------------------------------------------------|
D|\2-----2-----2-----2--2-----2--2-----2--2--2--2-------------------------------------------------|
A|-------------------------------------------------2-----2--2--2----2---2-----2--2-----2--2--2-/5-|
E|------------------------------------------------------------------------------------------------|
+
G|------------------------------------------------------------------------------------------------|
D|-7-/8-/10----------------7-/8-/10----------------5-----------5--------5--5--------5--5-----5----|
A|-------------7-----------------------7----------------------------------------------------------|
E|------------------------------------------------------------------------------------------------|
+
G|------------------------------------------------------------------------------------------------|
D|\2-----2-----2-----2--2-----2--2-----2--2--2--2-------------------------------------------------|
A|-------------------------------------------------2-----2--2--2----2---2-----2--2-----2--2--2-/5-|
E|------------------------------------------------------------------------------------------------|



BRIDGE:
G|------------------------------------------------------------------------------------------------|
D|-7-/8-/10----------------7-/8-/10----------------5-----------5--------5--5--------5--5-----5----|
A|-------------7-----------------------7----------------------------------------------------------|
E|------------------------------------------------------------------------------------------------|
+
G|------------------------------------------------------------------------------------------------|
D|\2-----2-----2-----2--2-----2--2----/5-----5\---------------------------------------------------|
A|-------------------------------------------------2-----2--2--2----2---2-----2--2-----2--2--2-/5-|
E|------------------------------------------------------------------------------------------------|
+
G|------------------------------------------------------------------------------------------------|
D|-7-/8-/10----------------7-/8-/10----------------5-----------5--------5--5--------5--5-----5----|
A|-------------7-----------------------7----------------------------------------------------------|
E|------------------------------------------------------------------------------------------------|
+
G|------------------------------------------------------------------------------------------------|
D|\2-----2-----2-----2--2-----2--2-----2--2--2--2-------------------------------------------------|
A|-------------------------------------------------2-----2--2--2----2---2-----2--2-----2--2--2----|
E|------------------------------------------------------------------------------------------------|



OUTRO I:
G|------------------------------------------------------------------------------------------------|
D|-------------------------------------------------------------6-----5----------------------------|
A|-0-----------0--------0--2-----------2--------2--3--------3--------------5-----------5--------5-|
E|------------------------------------------------------------------------------------------------|
+
G|------------------------------------------------------------------------------------------------|
D|------------------------------------------------------------------------------------------------|
A|-7-----------7--------7--10-------10-11----10----0-----------0--------0--2-----------2--------2-|
E|------------------------------------------------------------------------------------------------|
+
G|------------------------------------------------------------------------------------------------|
D|-------------6-----5----------------------------------------------------------------------------|
A|-3--------3--------------5-----------5--------5--7-----------7--------7--10-------10-11----10---|
E|------------------------------------------------------------------------------------------------|
+
G|------------------------------------------------------------------------------------------------|
D|-------------------------------------------------------------6-----5----------------------------|
A|-0-----------0--------0--2-----------2--------2--3--------3--------------5-----------5--------5-|
E|------------------------------------------------------------------------------------------------|
+
G|------------------------------------------------------------------------------------------------|
D|------------------------------------------------------------------------------------------------|
A|-7-----------7--------7--10-------10-11----10----0-----------0--------0--2-----------2--------2-|
E|------------------------------------------------------------------------------------------------|
+
G|------------------------------------------------------------------------------------------------|
D|-------------6-----5----------------------------------------------------------------------------|
A|-3--------3--------------5-----------5--------5--7-----------7--------7--10-------10-11----10---|
E|------------------------------------------------------------------------------------------------|
+
G|------------|
D|------------|
A|-11----10---|
E|------------|



OUTRO II:
G|------------------------------------------------------------------------------------------------|
D|------------------------------------------------------------------------------------------------|
A|-0-----------------------2-----------------------3-----------------3/---/5-----------------5/---|
E|------------------------------------------------------------------------------------------------|
+
G|------------------------------------------------------------------------------------------------|
D|-------------------------------------11----10---------------------------------------------------|
A|/7-----------------7/---/10----------------------0-----------------------2-----------------2/---|
E|------------------------------------------------------------------------------------------------|
+
G|------------------------------------------------------------------------------------------------|
D|-------------------------------------------------------------------------------------11----10---|
A|/3-----------------3/---/5----------------------/7-----------------7/---/10---------------------|
E|------------------------------------------------------------------------------------------------|
+
G|------------------------------------------------------------------------------------------------|
D|------------------------------------------------------------------------------------------------|
A|-0----------------------------------------------------------------------------------------------|
E|------------------------------------------------------------------------------------------------|



SONG STRUCTURE:
INTRO
VERSE
PRE-CHORUS
CHORUS I
VERSE
PRE-CHORUS
CHORUS II
BRIDGE
OUTRO I
OUTRO II



That's it.  Please feel free to leave any comments, questions, or requests.
Cheers!
-Bennyshambles78-


Suggest correction
Creating personal tab
Creating personal tab
You can edit any tab online and save it as your Personal.

You can edit, replace or remove any tab part or add personal notes – all changes will be seen only by you.

Personal tabs can be accessed anytime from any device, even offline.
Learn more »
Give kudos to tab author, rate the tab!
1 2 3 4 5
comments
print report bad tab
guest
You may want to rate the tab now too:
select rating
Wanna post a correction for this tab? Suggest correction