Oops, an error
Loading. Please wait.

Terminus bass

by Unwound
173 views 3 this week
no commentswrite comment
1 2 3 4 5
3 more votes to show rating
add to favorites
×
Save as Personal and add changes to this tab that will be seen only by you. Learn more ›
×
You can save this tab as Personal to edit and correct it or add notes. All changes will be seen only by you. Learn more »
launch autoscroll
font size
0
reset
guitar tuner
edit
Autoscroll
slow
fast
+/-
esc
set tempo
stop
Author
Difficulty
ARTIST: Unwound
SONG: "Terminus"
ALBUM: Leaves Turn Inside You (2001)



INTRO:
G|------------------------------------------------------------------------------------------------||
D|------------------------------------------------------------------------------------------------|| x 6
A|-7-----7--------------7--7-----7--------------7--7-----7--------------7--7-----7--------------7-||
E|------------------------------------------------------------------------------------------------||



VERSE:
G|------------------------------------------------------------------------------------------------||
D|------------------------------------------------------------------------------------------------|| x 3
A|-6-----6--------------6--6-----6--------------6--6-----6--------------6--6-----6--------------6-||
E|------------------------------------------------------------------------------------------------||
+
G|------------------------------------------------------------------------------------------------|
D|------------------------------------------------------------------------------------------------|
A|-6-----6--------------6--6-----6--------------6--6-----6--------------6--6-----6----------------|
E|------------------------------------------------------------------------------------------------|
+
G|------------------------------------------------------------------------------------------------|
D|------------------------------------------------------------------------------------------------|
A|-10---------------------\6-----------------------------------------------7-----------7----------|
E|-------------------------------------------------7----------------------------------------------|
+
G|------------------------------------------------------------------------------------------------|
D|------------------------------------------------------------------------------------------------|
A|-6-----6--------------6--6-----6--------------6--6-----6--------------6--6-----6--------------6-|
E|------------------------------------------------------------------------------------------------|
+
G|------------------------------------------------------------------------------------------------|
D|------------------------------------------------------------------------------------------------|
A|-6-----6--------------6--6-----6--------------6--6-----6--------------6--6-----6----------------|
E|------------------------------------------------------------------------------------------------|
+
G|------------------------------------------------------------------------------------------------||
D|------------------------------------------------------------------------------------------------|| x 2
A|-10---------------------\6-----------------------------------------------7-----------7/---------||
E|-------------------------------------------------7----------------------------------------------||
+
G|------------------------------------------------------------------------------------------------|
D|------------------------------------------------------------------------------------------------|
A|-9-----9--------------9--9-----9--------------9--9-----9--------------9--9-----9--------------9-|
E|------------------------------------------------------------------------------------------------|
+
G|------------------------------------------------------------------------------------------------|
D|------------------------------------------------------------------------------------------------|
A|-9-----9--------------9--9-----9--------------9--9-----9--------------9--9-----9----------------|
E|------------------------------------------------------------------------------------------------|
+
G|------------------------------------------------------------------------------------------------||
D|------------------------------------------------------------------------------------------------|| x 3
A|-10---------------------\6-----------------------------------------------7-----------7/---------||
E|-------------------------------------------------7----------------------------------------------||
+
G|------------------------------------------------------------------------------------------------|
D|------------------------------------------------------------------------------------------------|
A|-10---------------------\6-----------------------------------------------7----------------------|
E|-------------------------------------------------7----------------------------------------------|



CHORUS I:
G|-------------------------------------------------------------------------------------6-----7----|
D|-8-----8-----8-----8-----8-----8-----8-----8-----8-----8-----8-----8-----8-----8----------------|
A|------------------------------------------------------------------------------------------------|
E|------------------------------------------------------------------------------------------------|
+
G|-------------------------------------------------------------------------------------7-----6----|
D|-5-----5-----5-----5-----5-----5-----5-----5-----5-----5-----5-----5-----5-----5----------------|
A|------------------------------------------------------------------------------------------------|
E|------------------------------------------------------------------------------------------------|
+
G|-------------------------------------------------------------------------------------6-----7----|
D|-8-----8-----8-----8-----8-----8-----8-----8-----8-----8-----8-----8-----8-----8----------------|
A|------------------------------------------------------------------------------------------------|
E|------------------------------------------------------------------------------------------------|
+
G|-------------------------------------------------------------------------------------7-----6----|
D|-5-----5-----5-----5-----5-----5-----5-----5-----5-----5-----5-----5-----5-----5----------------|
A|------------------------------------------------------------------------------------------------|
E|------------------------------------------------------------------------------------------------|
+
G|-------------------------------------------------------------------------------------6-----7----|
D|-8-----8-----8-----8-----8-----8-----8-----8-----8-----8-----8-----8-----8-----8----------------|
A|------------------------------------------------------------------------------------------------|
E|------------------------------------------------------------------------------------------------|
+
G|-------------------------------------------------------------------------------------7-----6----|
D|-5-----5-----5-----5-----5-----5-----5-----5-----5-----5-----5-----5-----5-----5----------------|
A|------------------------------------------------------------------------------------------------|
E|------------------------------------------------------------------------------------------------|
+
G|-------------------------------------------------------------------------------------6-----7----|
D|-8-----8-----8-----8-----8-----8-----8-----8-----8-----8-----8-----8-----8-----8----------------|
A|------------------------------------------------------------------------------------------------|
E|------------------------------------------------------------------------------------------------|
+
G|------------------------------------------------------------------------------------------------|
D|-5-----5-----5-----5-----5-----5-----5-----5-----5-----5-----5-----5-----5-----5-----5-----5----|
A|------------------------------------------------------------------------------------------------|
E|------------------------------------------------------------------------------------------------|



CHORUS II:
G|-------------------------------------------------------------------------------------6-----7----|
D|-8-----8-----8-----8-----8-----8-----8-----8-----8-----8-----8-----8-----8-----8----------------|
A|------------------------------------------------------------------------------------------------|
E|------------------------------------------------------------------------------------------------|
+
G|-------------------------------------------------------------------------------------7-----6----|
D|-5-----5-----5-----5-----5-----5-----5-----5-----5-----5-----5-----5-----5-----5----------------|
A|------------------------------------------------------------------------------------------------|
E|------------------------------------------------------------------------------------------------|
+
G|-------------------------------------------------------------------------------------6-----7----|
D|-8-----8-----8-----8-----8-----8-----8-----8-----8-----8-----8-----8-----8-----8----------------|
A|------------------------------------------------------------------------------------------------|
E|------------------------------------------------------------------------------------------------|
+
G|-------------------------------------------------------------------------------------7-----6----|
D|-5-----5-----5-----5-----5-----5-----5-----5-----5-----5-----5-----5-----5-----5----------------|
A|------------------------------------------------------------------------------------------------|
E|------------------------------------------------------------------------------------------------|
+
G|-------------------------------------------------------------------------------------6-----7----|
D|-8-----8-----8-----8-----8-----8-----8-----8-----8-----8-----8-----8-----8-----8----------------|
A|------------------------------------------------------------------------------------------------|
E|------------------------------------------------------------------------------------------------|
+
G|-------------------------------------------------------------------------------------7-----6----|
D|-5-----5-----5-----5-----5-----5-----5-----5-----5-----5-----5-----5-----5-----5----------------|
A|------------------------------------------------------------------------------------------------|
E|------------------------------------------------------------------------------------------------|
+
G|-------------------------------------------------------------------------------------6-----7----|
D|-8-----8-----8-----8-----8-----8-----8-----8-----8-----8-----8-----8-----8-----8----------------|
A|------------------------------------------------------------------------------------------------|
E|------------------------------------------------------------------------------------------------|
+
G|------------------------------------------------------------------------------------------------|
D|-5-----5-----5-----5-----5-----5-----5-----5-----5-----5-----5-----5-----5-----5-----6-----7----|
A|------------------------------------------------------------------------------------------------|
E|------------------------------------------------------------------------------------------------|
+
G|------------------------------------------------------------------------------------------------||
D|-8-----8-----8-----8-----8-----8-----8-----8-----8-----8-----8-----8-----8-----8-----8-----8----|| x 2
A|------------------------------------------------------------------------------------------------||
E|------------------------------------------------------------------------------------------------||
+
G|------------------------------------------------------------------------------------------------|
D|-8\---------------------------------------------------------------------------------------------|
A|------------------------------------------------------------------------------------------------|
E|------------------------------------------------------------------------------------------------|



BRIDGE I:
G|------------------------------------------------------------------------------------------------|
D|------------------------------------------------------------------------------------------------|
A|-15----------15----------10----------10----------------------------------12----------12---------|
E|-------------------------------------------------12----------12---------------------------------|
+
G|------------------------------------------------------------------------------------------------|
D|------------------------------------------------------------------------------------------------|
A|-14----------14----------10----------10----------------------------------14----------14---------|
E|-------------------------------------------------10----------10---------------------------------|
+
G|------------------------------------------------------------------------------------------------|
D|------------------------------------------------------------------------------------------------|
A|-13----------13----------13----------13----------13----------------------13----13----13/14\13---|
E|-------------------------------------------------------13----13----13---------------------------|
+
G|------------------------------------------------------------------------------------------------|
D|------------------------------------------------------------------------------------------------|
A|-12-12-12-12-12-12-12-12-12-12-12-12-12-12-12-12-12-12-12-12-12-12-12-12-12-12-12-12-12-12-12-12|
E|------------------------------------------------------------------------------------------------|



BRIDGE II:
G|------------------------------------------------------------------------------------------------|
D|------------------------------------------------------------------------------------------------|
A|-12-12-12-12-12-12-12-12-12-12-12-12-14-14-15-15-15-15-15-15-15-15-15-15-15-15-15-15-15-15-15-15|
E|------------------------------------------------------------------------------------------------|
+
G|------------------------------------------------------------------------------------------------|
D|------------------------------------------------------------------------------------------------|
A|-14-14-14-14-14-14-14-14\10-10-10-10-10-10-10-10\5--5--5--5--5--5--5--5-/14-14-14-14-14-14-14-14|
E|------------------------------------------------------------------------------------------------|
+
G|------------------------------------------------------------------------------------------------|
D|------------------------------------------------------------------------------------------------|
A|-13-13-13-13-13-13-13-13-13-13-13-13-13-13-13-13-13-13-13-13-13-13-13-13-13-13-13-13-13-13-13-13|
E|------------------------------------------------------------------------------------------------|
+
G|------------------------------------------------------------------------------------------------|
D|------------------------------------------------------------------------------------------------|
A|-12-12-12-12-12-12-12-12-12-12-12-12-12-12-12-12-12-12-12-12-12-12-12-12-12-12-12-12-12-12-12-12|
E|------------------------------------------------------------------------------------------------|



OUTRO:
Vern plays the OUTRO on guitar (see "Terminus" guitar tab).



SONG STRUCTURE:
INTRO x 1
VERSE x 1
CHORUS I x 1
VERSE x 1
CHORUS II x 1
BRIDGE I x 3
BRIDGE II x 2
BRIDGE I x 2
BRIDGE II x 2
BRIDGE I x 3 (fades out into strings)
OUTRO (no bass)



That's it.  Please feel free to leave any comments, questions, or requests.
Cheers!
-Bennyshambles78-



            
            
Suggest correction
Creating personal tab
Creating personal tab
You can edit any tab online and save it as your Personal.

You can edit, replace or remove any tab part or add personal notes – all changes will be seen only by you.

Personal tabs can be accessed anytime from any device, even offline.
Learn more »
Give kudos to tab author, rate the tab!
1 2 3 4 5
comments
print report bad tab
guest
You may want to rate the tab now too:
select rating
Wanna post a correction for this tab? Suggest correction