Oops, an error
Loading. Please wait.

Shoulda Known Better Tab

version 1
version 1

Intro

Whole song

9,473 views 9 this week
1 commentread comment
1 2 3 4 5
excellent!
x 9
add to favorites
launch autoscroll
font size
0
reset
how to read this tab
guitar tuner
Tab Pro tools
  • play this tab
  • loop segment
  • change instrument
  • show fretboard
  • metronome
Autoscroll
slow
fast
+/-
esc
set tempo
stop
Contributor
Difficulty
Tuning
intermediate
D A D G B E
Soft Acoustic (Nylon String) Intro
e|-0~~-----------------------------------------|
B|-5~~------5-6-8-8/10-8-6h8p6-6-5-------------|
G|-6~~----6-----------------------------7\6----|
D|-7~~--7--------------------------------------|
A|-0~~-----------------------------------------|
D|---------------------------------------------|

Cont.
e|0~~--------------------------------------------------------|
B|5~~------5-6-6/8-6-6h8ph6\5---5----------------------------|
G|6~~----6------------------------7---7-6---0---0---0---0----|
D|7~~--7-----------------------------------7---5---3---2-----|
A|0~~--------------------------------------------------------|
D|-----------------------------------------------------------|

Cont.
e|----------1--------------------0-------------------1-----------------3-------|
B|-----3------3----3-------3------3----3------3------3---3------3-----3---3----|
G|---2---2------2--------2---2------2-------2---2------2------0---0-----0------|
D|-----------------------------------------------------------------------------|
A|-----------------------------------------------------------------------------|
D|-0-------------------2-------------------3------------------5----------------|

Cont.
e|-------------0---------------------------------------|
B|--------6------6-------------6-------------5-/10~~---|
G|------7---7------7--------7-------------6------------|
D|---8--------------------8---------<7>----------------|
A|-----------------------------------------------------|
D|-8-------------------8----------7--------------------|


Hard Intro (fade in with Open D chord by strumming with the volume on '0' then turning it up full)
e|----------------------------------||------------------------------|
B|-10--11--12--11--10--11--12--13-||--------------------------------|
G|--x---x---x---x---x---x---x----x-||----2-2-2---2-2-2-2-2----------|x2
D|--7---8---9---8---7---8---9--10-||----0-0---0-0-0-0-0-0-----------|
A|---------------------------------||-------------------------0-----|
D|---------------------------------||--0------------------------0---|


Verse
e|-----------------------|--------------------|-----------------------|
B|-----------------------|--------------------|-----------------------|
G|-2~~-5~~-7~~-5~~-9~~-|2~~-5~~-7~~-6~~-9~~|2~~-5~~-7~~-5~~-9~--------|
D|-0~~-3~~-5~~-3~~-7~~-|0~~-3~~-5~~-4~~-7~~|0~~-3~~-5~~-3~~-7~--------|
A|-0~~-3~~-5~~-3~~-7~~-|0~~-3~~-5~~-4~~-7~~|0~~-3~~-5~~-3~~-7~--------|
D|----------------------|---------------------|-----------------------|


Chorus
e|-----------------------------------------------------------------|
B|-----------------------------------------------------------------|
G|-3--2--3--2--3--10--9-10-9-10-9-10-9-10-9-10-9-10-9-10-9-10------|
D|-3--2--3--2--3--10--9-10-9-10-9-10-9-10-9-10-9-10-9-10-9-10------|
A|-1--0--5--0--1---8--7--8-7--8--7--8-7--8-7--8-7--8-7--8-7--8-----|
D|-----------------------------------------------------------------|


Hard Intro (minus end)

Verse 2 (same as ‘Verse’)

Chorus


Verse 3                                                                                  
   Lifting off and on whilst picking fast
                                                                 |Wah Pedal--|
E|----------------------------------------------------|--------21-|----------|
B|----------------------------------------------------|------------|---------|
G|--2-2-22-00000h2-2----2-2p0-0-0-0--2-2-3-3-3-2-2--|-7--19-----|-19--7--19--|
D|---0-0-00-00000-0---0---0-0p0-0-0-0--0-0-0-0-0-0-0|-----------|------------|
A|----------------------------------------------------|------------|---------|
D|0---------------------------------------------------|------------|---------|


Chorus
e|---------------------------------------------------------------------------|
B|---------------------------------------------------------------------------|
G|-3-2-3-2-3-10--3-2-3-2-3-10--9-10-9-10-9-10-9-10-9-10-9-10-9-10-9-10-------|
D|-3-2-3-2-3-10--3-2-3-2-3-10--9-10-9-10-9-10-9-10-9-10-9-10-9-10-9-10-------|
A|-1-0-5-0-1--8--1-0-5-0-1--8--7--8-7--8--7--8-7--8-7--8-7--8-7--8-7--8------|
D|---------------------------------------------------------------------------|

Outro: - Hard Intro (without end)x2
comments
print report bad tab
1 comment total.
0 reply
richwatkinson wrote on July 3 2007, 10:51 am

Excellent, just looking for the soft intro tab,spot on :)

I want to post or [tab]
guest
You may want to rate the tab now too:
select rating
Please do not post tabs as comments. Select "correction" instead!