Oops, an error
Loading. Please wait.

Sound Siren Acoustic tab

version 2
version 2

Whole song

Interactive

664 views 1 this week
no commentswrite comment
1 2 3 4 5
3 more votes to show rating
add to favorites
×
Save as Personal and add changes to this tab that will be seen only by you. Learn more ›
×
You can save this tab as Personal to edit and correct it or add notes. All changes will be seen only by you. Learn more »
launch autoscroll
font size
0
reset
how to read this tab
guitar tuner
edit
Autoscroll
slow
fast
+/-
esc
set tempo
stop
----------------------------------------------------------------------------
                Sound Siren [acoustic] - Unwritten Law
----------------------------------------------------------------------------
Tabbed by: Skipper Mikkel
Email: Mikkel_sejl@Hotmail.com

Tuning: Standard (low to high - EADGBE)


Verse 1:

Riff A:  x 2
-------------------------|            -----------------------|
-------------------------|            -----------------------|
-------------5-5-x-x-x-x-|            -------------4-5-------|
-5-5-x-x-x-x-5-5-x-x-x-x-|            -5-5-x-x-x-x-4-5---5\4-|
-5-5-x-x-x-x-3-3-x-x-x-x-|  x 3, then -5-5-x-x-x-x-2-3---5\4-|
-3-3-x-x-x-x-------------|            -3-3-x-x-x-x-------3\2-|

Sail with me 
Across the sea 
So we can see what's going on 
Along the way, Red stack the bong 
We'll make it tight alright 
We'll write the one 
That makes her come 
The one that makes it so she can't sleep tonight 


Pre-chorus:

Riff B: 
-2-2-2-2-0-0-0-0-|
-3-3-3-3-1-1-1-1-|
-2-2-2-2-0-0-0-0-|
-0-0-0-0-2-2-2-2-|
---------3-3-3-3-|
-----------------|

So bombs away and as they say 
Here's to oblivion 


Interlude:

Riff C:  
-----------------------------|
-----------------------------|
-------4-5-5-----------4-5-5-|
-5-5---4-5-5---4-5-5---4-5-5-|
-5-5---2-3-3---4-5-5---2-3-3-|
-3-3-----------2-3-3---------|


Pre-chorus:

Riff B  

And cheers to you 
As well it's through 
Sound siren 


Chorus:

Riff D:
-x-x-x-x-x-x-x-x---x-x-x-x-x-x-x-x-|
-3-3-3-3-3-3-3-3---3-3-3-3-3-3-3-3-|
-0-0-0-0-0-0-0-2---0-0-0-0-0-0-0-0-|
-0-0-x-x-0-0-0-0---0-0-x-x-0-0-0-0-|
-x-x-2-2-3-3-------x-x-2-2-3-3-0-0-|
-3-3---------------3-3-------------|

She's still cryin 
Its over, it's over 
Sound siren 
It's over, it's over 


Interlude:

Riff C


Verse 2:

Riff A  x 2

We'll have some fun 
Play with a loaded gun 
Try not to shoot and kill no one 
Cause I would feel like shit 
But in the same regard 
Its getting hard to deal with it 
And I'm sick of it 
And no place is too far 


Pre-chorus:

Riff B

So bombs away and as they say 
Here's to oblivion 


Interlude:

Riff C


Pre-chorus:

Riff B

And cheers to you 
As well it's through 
Sound siren 


Chorus:

Riff D

She's still cryin 
Its over, it's over 
Sound siren 
It's over, it's over 


Post-chours:

Riff E:  x 2
-x-x-x-x-x-x-x-x-|
-3-3-3-3-3-3-3-3-|
-0-0-0-0-0-0-0-0-|
-0-0-2-2-x-x-0-0-|
-x-x-2-2-2-2-3-3-|
-3-3-0-0---------|

So bombs away and as they say 
Well it's over now, it's over now 
She's gone, yeah and he won't go away 


Bridge:

Riff F:  x 2
-3---3---x---x---x---x---x---x---|
-0---0---3---3---3---3---3---3---|
-0---0---2---2---0---0---0---0---|
-2---2---0---0---2---2---2---2---|
-2---2---2---2---3---3---3---3---|
-0---0---------------------------|

So sound siren


Chorus:

Riff D  x 4

She's still cryin 
Its over, it's over 
Sound siren 
It's over, it's over 
She's still cryin 
Its over, it's over 
Sound siren 
It's over, it's over 
She's still cryin 
Its over, it's over 
Sound siren 
It's over, it's over 
She's still cryin 
Its over, it's over 
Sound siren 
It's over, it's over 


Suggest correction
Creating personal tab
Creating personal tab
You can edit any tab online and save it as your Personal.

You can edit, replace or remove any tab part or add personal notes – all changes will be seen only by you.

Personal tabs can be accessed anytime from any device, even offline.
Learn more »
Give kudos to tab author, rate the tab!
1 2 3 4 5
comments
print report bad tab
guest
You may want to rate the tab now too:
select rating
Wanna post a correction for this tab? Suggest correction