Oops, an error
Loading. Please wait.

Feelings Tab

8,585 views 12 this week
no commentswrite comment
1 2 3 4 5
x 3
add to favorites
launch autoscroll
font size
0
reset
how to read this tab
guitar tuner
Autoscroll
slow
fast
+/-
esc
set tempo
stop
Help us to improve Ultimate-Guitar.com Take our survey!
×
Author
Difficulty
novice
Feelings
Up Dharma Down
From Capacities Album
Tabbed by Jake Zaragoza

This is not an exact tab of the song
but this is pretty much how i play it
just sharing for those who 
want to play this great great song as well,
i'll try to make a guitar cover on how i play/strum the parts
hope  you appreciate this :)


e|-----------------------|
b|----0----0-------------|
g|----7----6-----------6-|
d|----7----7-----------7-|
a|---------------------7-|
e|-----------------------| >>>>>  *D DM7 A
     
    Brea-  king through the night
      in   this cold fahrenheit

    Bland and        bittersweet
    Wondering what went wrong

e|-------------------------|
b|-------------------------|
g|----4------------4-------|
d|----5------------5-------|
a|----5------------5-------|
e|----3------------3-------| >>>>> *G

      shadows have left
      There goes all hope

e|-------------------------|
b|-------------------------|
g|----0-----------0--------|
d|----2-----------0--------|
a|----2-----------2--------|
e|----0-----------0--------| >>>>> *Em Em7

      crying got old
      There goes all hope

e|-----0--------0------------|
b|-----0--------0------------|
g|-----2--------7------------|
d|-----4--------9------------|
a|-----4--------9------------|
e|-----0--------0------------| >>>>> *F#m Bm

         
          G
But the feeling
     F#m      Bm
It tries to escape
G
Bleeds through the light
             F#m      Bm
Even when I close my eyes
         G
Its not seething
      F#m           Bm
The weight on this shoulder
        G
I can't wait to chase the fiction home
     F#m       Bm
And carry on

*Same tab as previous stanzas 
**From this point strum all strings, and just feel the vibe of the song ;)

Favors in reverse
Songs are unrehearsed
When I get through this
I hope I get through you

Stains on my mind
The cloud on that hour
The minute you closed the door
My eyes washed the floor

G
Baby, baby it's hard to say
           F#m
But there seems to be no other way
     Bm
You left and you were right
       A
So I have to let us down this time
A
'Cause I can't
A              G
'Cause I can't feel it
F#m
No other way but down
Bm
No other way but down
G
You said so yourself

It's just
F#m
It's just a feeling
Bm
It's just a feeling
G
What are you crying for
What are you crying for
F#m
When it's just a feeling
Bm                             G
God knows you can get through this
                 F#m
When it's just a feeling
They are just feelings
Bm
These are just feelings

G-G-F#m-Bm

G            G
I wanna know
        F#m          Bm
Do you feel anything
         G            G
As you go on your way
F#m
Driving home
      Bm                 G
As I sleep alone tonight
             G
I wanna know
        F#m          Bm
Do you feel anything
        G   G   F#m
For me
            Bm                       G     G
Is there anything you like to say tonight?
F#m
Before I go
Bm             G-G-F#m-Bm G
Before I go...forever...
Suggest correction
Give kudos to tab author, rate the tab!
1 2 3 4 5
comments
print report bad tab
guest
You may want to rate the tab now too:
select rating
Wanna post a correction for this tab? Suggest correction