Oops, an error
Loading. Please wait.

Luna Chords

18,373 views 72 this week
2 commentsread comments
1 2 3 4 5
excellent!
x 12
add to favorites
launch autoscroll
font size
0
reset
transpose
0
reset
display chords
guitar tuner
Autoscroll
slow
fast
+/-
esc
set tempo
stop
Help us to improve Ultimate-Guitar.com Take our survey!
×
-----------------------------------------------------------------------------
                             Luna - Up Dharma Down
-----------------------------------------------------------------------------

Tabbed by: scratch_n_sniff
E-mail: doctordro@gmail.com


*standard tuning


[Intro]

e|------------------------------------------------------------------------------------|
B|-----------------6-----------------5-----------------6-------------------5-------8--|
G|----------5-----------------5-----------------5--------------------5----------------|
D|----8-----------------7----------------8-------------------7------------------------| x2
A|------------------------------------------------------------------------------------|
E|------------------------------------------------------------------------------------|


[Verse]

F         Am  G      F
Ano na naman itong gumugulo
     Am   G
sa buhay ko?
F                 Am    G
Bawat nakaw-tingin
F                      Am    G
Sinasalo lang ng hangin


[Chorus]

Dm
Minamasdan
      Em
Ang saya ng puso mo
F
Sa piling ng iba
Dm
Inaasam
Em
Ang paglaya ng buwan
F
Na laging mag-isa
Oooooh


[Instrumental]

(Repeat Intro)
e|------------------------------------------------------------------------------------|
B|-----------------6-----------------5-----------------6-------------------5-------8--|
G|----------5-----------------5-----------------5--------------------5----------------|
D|----8-----------------7----------------8-------------------7------------------------| x2
A|------------------------------------------------------------------------------------|
E|------------------------------------------------------------------------------------|


[Verse]

F          Am
Ano na naman
G       F          Am    G
itong  sinusuyo ng buhay ko
F                     Am G
pinangtatawag ng pansin
F                     Am   G
mawawala lang sa hangin


[Chorus 2]

Dm
Inaasam
Em
ang saya ng puso ko
F
sa piling ng iba
Dm
Minamasdan
Em
ang paglaya ng buwan
F
na laging mag-isa


[Instrumental]

(Variation of F  Am  G , you can do this to emulate Carlos Tanada’s lick. Accent it on 
the 8th fret of the B string. Repeat until fade)

e|--------------5--------------------|
B|---8----------8-------8------------|
G|---5----------5-------7------------|
D|---x----------5-------x------------|
A|---8----------7------10------------|
E|--------------5--------------------|

Oh oh ooooh oh…
Oh oh ooooh oh…



************************************

| x  Dead note

************************************
Suggest correction
comments
print report bad tab
2 comments total.
0 reply
seohyunnie 42 wrote on August 23 2013, 09:09 am

Ayus. Salamat 'dre!

0 reply
claire.devera.7 10 wrote on October 9 2013, 04:36 am

ganda nito!love it <3

guest
You may want to rate the tab now too:
select rating
Wanna post a correction for this tab? Suggest correction