Oops, an error
Loading. Please wait.

Oo Tab

version 3
version 3

Whole song

13,315 views 15 this week
no commentswrite comment
1 2 3 4 5
2 more votes to show rating
add to favorites
launch autoscroll
font size
0
reset
how to read this tab
guitar tuner
Autoscroll
slow
fast
+/-
esc
set tempo
stop
Help us to improve Ultimate-Guitar.com Take our survey!
×
Author
Difficulty
oo - up dharma down
tabbed by: ramen cascante
listen to the song for the strumming pattern.
these are all the chords used in the song.

[Intro]
e|--------|
B|7h8p75\3|
G|--------|
D|--------|
A|--------|
E|--------|

 DM7   G
|5-5---3-3-3--|
|7--7--3-3--3-|
|6---6-4-3---3|
|7-----5-5----|   4x
|5-----3-3----|
|5-----3-3----|

[Verse]
 DM7   G
|5-----3h5---|
|7-----3-----|
|6-----4-----|
|7-----5-----|   4x
|5-----3-----|
|5-----3-----|
      or
w/ delay  & phaser
|-----5------|
|5----3------|
|6----4------|
|7-----------|   4x
|------------|
|------------|

[Chorus]
 Em  F#m Bm
|0---2---2-|
|0---2---3-|
|0---2---4-|
|2---4---4-|   4x
|2---4---2-|
|0---2---2-|

[Verse]
 DM7   G
|5-----3h5---|
|7-----3-----|
|6-----4-----|
|7-----5-----|   4x
|5-----3-----|
|5-----3-----|

[Chorus]
 Em  F#m Bm
|0---2---2-|
|0---2---3-|
|0---2---4-|
|2---4---4-|   4x
|2---4---2-|
|0---2---2-|

[Chorus]
 Em  F#m Bm
|0---2---2-|
|0---2---3-|
|0---2---4-|
|2---4---4-|   4x
|2---4---2-|
|0---2---2-|

[Verse]
 DM7   G
|5-----3h5---|
|7-----3-----|
|6-----4-----|
|7-----5-----|   4x
|5-----3-----|
|5-----3-----|

[Chorus]
 Em  F#m Bm
|0---2---2-|
|0---2---3-|
|0---2---4-|
|2---4---4-|   4x
|2---4---2-|
|0---2---2-|

[Chorus]
 Em  F#m Bm
|0---2---2-|
|0---2---3-|
|0---2---4-|
|2---4---4-|   4x
|2---4---2-|
|0---2---2-|

[Outro]
 DM7   G
|5-----3h5---|
|7-----3-----|
|6-----4-----|
|7-----5-----|   4x
|5-----3-----|
|5-----3-----|
Suggest correction
Give kudos to tab author, rate the tab!
1 2 3 4 5
comments
print report bad tab
guest
You may want to rate the tab now too:
select rating
Wanna post a correction for this tab? Suggest correction