Oops, an error
Loading. Please wait.

Pag-Agos Chords

version 1
version 1

Whole song

8,494 views 18 this week
1 commentread comment
1 2 3 4 5
accurate
x 3
add to favorites
launch autoscroll
font size
0
reset
transpose
0
reset
display chords
guitar tuner
Autoscroll
slow
fast
+/-
esc
set tempo
stop
Help us to improve Ultimate-Guitar.com Take our survey!
×
Author
----------------------------------------------------------------------------
SONG: Pag-agos
ARTIST: Up Dharma Down
CHORDS BY: Jhay Ehidio
----------------------------------------------------------------------------
[song:fast-paced]
----------------------------------------------------------------------------

VERSE 1:
A      B           C#m
 At sa aking pagkubli
A          B          C#m
 Hampas ng araw pagdamdam ng gabi
A           B          C#m
 Tulog ang iyong mga kamay
A   B           C#m   
 Di nako makapag antay

INTERLUDE:A-B-C#m-A-B-C#m

VERSE 2: REPEAT VERSE 1 CHORDS
Isang umaga muling aahon
At sisikat sa mga panahon
Na tayong pang dalawa
Masayang pagsasama

CHORUS:
A      B           C#m
 Buong araw ng pag-agos
A    B        C#m
 Kailan ang huling unos
    A  B          C#m
Di alam kung tatakbo
A      B        C#m
Kusang lalayo sayo

(INTERLUDE)

VERSE 3: REPEAT VERSE 1 CHORDS
Isang umaga muli ng pag-iisa
Walang mayakap at makasama
Pusong pilit na sinugatan
Landas kong karaniwan 

(CHORUS)

----------------------------------------------------------------------------
YUN LANG...TY
----------------------------------------------------------------------------
Suggest correction
Give kudos to tab author, rate the tab!
1 2 3 4 5
comments
print report bad tab
1 comment total.
0 reply
bananaman99 10 wrote on October 16 2007, 09:02 am

it should go something like this: (original bass and keyboard parts transcribed to guitar)
E|------------------|
B|------------------|
G|----------8--(9)--|
D|--6---9---6---6---|
A|--4---7---4---4---|
E|--2---5-----------|
the guitar part actually plays in the background with something like:
E|------------------------------|
B|--------------12--------------|
G|-----------13----13-----------|
D|-----9--13----------13--9-----|
A|--11----------------------11--|
E|------------------------------|
some delay and modulation thrown in...

still you got the A-B-C#m progression right. it fits the chorus part.

yun lang. cheers.

guest
You may want to rate the tab now too:
select rating
Please do not post tabs as comments. Select "correction" instead!