Oops, an error
Loading. Please wait.

Sana Chords

version 2
version 2

Whole song

8,299 views 6 this week
no commentswrite comment
1 2 3 4 5
3 more votes to show rating
add to favorites
launch autoscroll
font size
0
reset
transpose
0
reset
simplify chords
display chords
guitar tuner
Autoscroll
slow
fast
+/-
esc
set tempo
stop
Help us to improve Ultimate-Guitar.com Take our survey!
×
Author
Title: Sana
Artist: Up Dharma Down
Album: Bipolar

CHORDS USED:
Dsus4  [XXX233]
F*     [XXX211] 
Cadd9  [032033]
FMaj7  [XX3210]
Dmadd9 [XX3230]
Em7    [022033]
D7sus4 [XX0213]
F      [133211]
Am     [X02210]
G5     [3X0033]
Am7    [X02010]
Dadd4/G[3X0032]
C#m    [X46654]
B      [X24442]
D7     [XX0212]
G      [355433]
Bm     [X24432]
A      [X02220]
Fadd9  [X03213]
Am7*   [X02013]

INTRO:

e|-3-1--3-1-|
B|-3-1--3-1-|
G|-2-2--2-2-| 2x
D|----------|
A|----------|
E|----------|

Cadd9   FMaj7
Cadd9   FMaj7

VERSE 1:
  FMaj7   Dmadd9      FMaj7 Dmadd9
e|-0--------0----------0------0-|
B|-1--------3----------1------3-|
G|-2--------2----------2------2-|
D|-3--------3----------3------3-|
A|------------------------------|
E|------------------------------|
    Nilibot na ang buong mundo

  Em7    Em7       Em7  FMaj7 D7sus4
e|-3------3---------3----0--3---|
B|-3------3---------3----1--1---|
G|-0------0---------0----2--2---|
D|-2------2---------2----3--0---|
A|-2------2---------2-----------|
E|-0------0---------0-----------|
    Di pa rin ako nakukuntento

  FMaj7 Dmadd9     FMaj7  Dmadd9 
e|-0------0---------0-------0---|
B|-1------3---------1-------3---|
G|-2------2---------2-------2---|
D|-3------3---------3-------3---|
A|------------------------------|
E|------------------------------|
    Makakahanap ng ipapalit   Nang

  Em7      Em7        Em7     FMaj7
e|-3--------3----------3-------0----------|
B|-3--------3----------3-------1----------|
G|-0--------0----------0-------2----------|
D|-2--------2----------2-------3----------|
A|-2--------2----------2------------------|
E|-0--------0----------0------------------|
 walang babala Lumipas ay nagbabalik pala

PRE-CHORUS:
F               Am                     F
 Nalilito na ako hindi na dapat gan'to
              Em7           Am
Nakaraan ay natapos at napagdaanan na
F                    Am                  F
 Bakit na sisindak pa sa t'wing naaalala
                Em7          Am
Matatauhan na wala ka na pala

CHORUS:
 FMaj7
Ako sila'y nandito na
 G5              Am
Ikaw na lang ang kulang
 FMaj7                    Em7          Am
Anong lunod o lalim ba't 'di na lang lumutang
 FMaj7                    G5        Am
Anong pait ang matamis at aking susubukan
 FMaj7
Anong silbi ng narito
 Em7         Am
'Di mo na kailangan

VERSE 2:
FMaj7              Am7        Em7            Am
   Hindi nga nagtagal ang pagpapanggap na 'to
FMaj7                Am7               Em7
   Kaliwa at kanan harap at likod ano mang anggulo
        G5       Am
Titigan ay bumibigay ako

PRE-CHORUS:
Damdamin ay kay bigat
Naisip na ang lahat
Wala na ba talaga akong magagawa pa

CHORUS:
Ako sila'y nandito na
Ikaw na lang ang kulang
Anong lunod o lalim ba't 'di na lang lumutang
Anong tamis ang mapait at aking iiwasan
Walang silbi ang narito
'Di mo na kailangan

Dadd4/G                   C#m
       Wala na bang makakapantay
Em7                       B     D7
  at di na ba dapat pang maghintay
Dadd4/G                     C#m
       Ako lang ba ang nagkasala?
Em7               B              G
   Kumakapit sa natitirang sana
   Bm              G
Kung babalik ka pa 
Bm
   hanggang kailan kaya?
 G                     Bm
Ako dito mag aabang na magdutong na ang patlang
    G                     Bm
Ang kulang ay mapupunan wala nang makahahadlang
  G                       Bm
Wala na yatang hihigit sa pangungulila ko
 Dadd4/G                  A      Bm
Iba na bang nagbibigay ng mga kailangan mo?

Fadd9   Am7*    Em7
Fadd9   Am7*    Em7

Fadd9     Am7* Em7
      Oh sana     Kay higpit ng kapit sa unan kagabi ko
Fadd9     Am7* Em7                                       FMaj7
      Oh sana     Inaasam muling makatabi at mahalik sana
Suggest correction
Give kudos to tab author, rate the tab!
1 2 3 4 5
comments
print report bad tab
guest
You may want to rate the tab now too:
select rating
Wanna post a correction for this tab? Suggest correction