Oops, an error
Loading. Please wait.

Tadhana Bass Tab

version 1
version 1

Whole song

14,852 views 63 this week
no commentswrite comment
1 2 3 4 5
please rate
add to favorites
launch autoscroll
font size
0
reset
guitar tuner
Autoscroll
slow
fast
+/-
esc
set tempo
stop
Help us to improve Ultimate-Guitar.com Take our survey!
×
Author
Difficulty
Tuning
intermediate
D# G# C# F# A# D#
Artist: Up Dharma Down
Song: Tadhana

Tuning: Half-Step Down --> 5-string bass (Bb Eb Ab Db Gb)

Intro:

   C    E  (2x)    

Verse 1: 
  C                E
   Sa hindi inaaasahang
  C                 E
   Pagtatagpo ng mga mundo
  C                  E
   May minsan lang na nagdugtong,
  A                  C
   Damang dama na ang ugong nito


Verse 2:
Gb|--------------------------------------------------|
Db|--------------------------------------------------|
Ab|--------------------------------------------------|
Eb|--------------3-------5-------7-----3---2---------|
Bb|----------1-------3-------5-----------------------|
            'Di pa ba sapat ang sakit at lahat
Gb|--------------------------------------------------|
Db|--------------------------------------------------|
Ab|---------------------------7---5---7---5----------|
Eb|--------------3---2---5---------------------------|
Bb|----------1---------------------------------------|
            Na hinding hindi ko ipararanas sayo
Gb|------------------------------------------------|
Db|------------------------------------------------|
Ab|------------------------------------------------|
Eb|--------------3-------5-------7-----3---5-------|
Bb|----------1-------3-------5---------------------|
               Ibinubunyag ka ng iyong mata
Gb|------------------------------------------------|
Db|------------------------------------------------|
Ab|------------------------------------------------|
Eb|----------------5-------------------------------|
Bb|-----------------------------------1------------|
                 Sumisigaw ng pag-sinta


Chorus:
               C      
Ba't di pa patulan
              D      E            
Ang pagsuyong nagkulang
        G\      C
Tayong umaasang
         D      E
Hilaga't kanluran
         E\       C
Ikaw ang hantungan
          D      E       G\
At bilang kanlungan mo
  A~
Ako ang sasagip saýo


Instrumental:
Gb|-------------------------------------|
Db|-------------------------------------|
Ab|--------2-----5--7-------------------|
Eb|-----------3--------3--5-------------|
Bb|------1--------------------3\--------|

Gb|-------------------------------------|
Db|-------------------------------------|
Ab|--------2-----5-----7----------------|
Eb|-----------3-----7-----7----5\-------|
Bb|------1------------------------------|

Gb|-------------------------------------|-----------------|
Db|-------------------------------------|-----------------|
Ab|--------2-----5--7-------------------|-----------------|
Eb|-----------3--------2--5-------------|----5-------5----|
Bb|------1--------------------5---------|-----------------|


Verse 3:
Gb|-------------------------------------------------|
Db|-------------------------------------------------|
Ab|-------------------------------------------------|
Eb|----------------3----5------7----3--2------------|
Bb|-------------1-----3-----5-----------------------|            
                  Saan nga ba patungo,
Gb|--------------------------------------------------|
Db|--------------------------------------------------|
Ab|-------------------------------------7\-----------|
Eb|--------------3-----5-------7----5----------------|
Bb|-----------1-----3-----5--------------------------|
                Nakayapak at nahihiwagaan
Gb|------------------------------------------------|
Db|------------------------------------------------|
Ab|------------------------------------------------|
Eb|---------------3-----5--------7---3---5---------|
Bb|------------1-----3-----5-----------------------|
               Ang bagyo ng tadhana ay
Gb|------------------------------------------------|
Db|------------------------------------------------|
Ab|------------------------------------------------|
Eb|---------------5--------------------------------|
Bb|----------------------------------1------------|
              Dinadala ako sa init ng bisig mo



Chorus 2:
                  C
Ba't 'di pa sabihin
           D     E
Ang hindi mo maamin
    G\   C               D      E
Ipa-uubaya na lang ba 'to sa hangin
         E\   C     
huwag mong ikatakot
    D         E           G
Ang bulong ng damdamin mo
 A~
Naririto ako at nakikinig saýo


Outro:

Gb|-------------------------------------|
Db|-------------------------------------|
Ab|--------2-----5--7-------------------|
Eb|-----------3--------3--5-------------|
Bb|------1--------------------3\--------|
            Hooohh... hoooohh...

Gb|-------------------------------------|
Db|-------------------------------------|
Ab|--------2-----5-----7----------------|
Eb|-----------3-----7-----5----7\-------|
Bb|------1------------------------------|
            Hooohh... hoooohh...
Gb|-------------------------------------|-----------------|
Db|-------------------------------------|-----------------|
Ab|--------3--2-----7-------------------|-----------------|
Eb|--------------3----3--5--------------|----1-------1----|
Bb|------1------------------3\----------|-----------------|
            Hooohh... hoooohh...~~~~~~~~~~~~~~~~~~~~~~~~~~|


 Legend:

 \  = slide down
 /  = slide up 
Suggest correction
What's this?
You can suggest a correction to this tab. Community and Mods will review your correction and vote to approve or reject it.
comments
We did not receive enough feedback on this tab! Please rate:
print report bad tab
1 2 3 4 5
guest
You may want to rate the tab now too:
select rating
Please do not post tabs as comments. Select "correction" instead!