Oops, an error
Loading. Please wait.

Tadhana tab

version 2
version 2

Whole song

Interactive

21,730 views 354 this week
1 commentread comment
1 2 3 4 5
x 3
add to favorites
×
Save as Personal and add changes to this tab that will be seen only by you. Learn more ›
×
You can save this tab as Personal to edit and correct it or add notes. All changes will be seen only by you. Learn more »
launch autoscroll
font size
0
reset
how to read this tab
guitar tuner
edit
Autoscroll
slow
fast
+/-
esc
set tempo
stop
Author
Difficulty
intermediate
Video Tutorial:  http://www.youtube.com/watch?v=MwVtNjpu2n0


[Intro]

E|-----7-----7--------7--------7-----7--------7-----]
B|--------7-----7--7-----7--------7-----7--7-----7--]
G|--------------------------------------------------]
D|--------------------------------------------------]
A|--0-----------------------4-----------------------]
E|-----------7--------------------------------------]

E|--4--------2-----------------]
B|-----2--------2-----7-----5--]
G|--------2--------4-----6-----]
D|-----------------------------]
A|--0--------2--------4--------]
E|-----------------------------]

E|-----------0--2-----0--------------]
B|--------0--------2-----7-----5--7--]
G|-----2--------------------6--------]
D|-----------------------------------]
A|--0-----------2--------4-----------]
E|-----------------------------------]

Aadd9      Bsus4   C#m (2x)


[Verse 1]

E|-----------------------------]
B|-----0--0--0-----------------]
G|-----2--------2--1-----------]
D|-----2--------------4--4--6--]
A|--0--------2-----------4-----]
E|-----------------------------]
Aadd9      Bsus4    C#m
     Sa hindi   inaasahang


E|--------------------------------------]
B|-----0--0--0--0-----------------------]
G|-----2-----------2--1--------4--------]
D|-----2-----------------4--------6-----]
A|--0-----------2-----------4--------7--]
E|--------------------------------------]
Aadd9         Bsus4    C#m
     Pagtatagpo ng mga mundo


E|-----------------------------]
B|-----0--0--2--4--5--4--------]
G|-----2--------------------6--]
D|-----2-----------------6-----]
A|--0-----2-----------4--------]
E|-----------------------------]
Aadd9    Bsus4          C#m
     May minsan lang na nagdugtong
E|--------------------------------------]
B|--------------------------------------]
G|-----2--1--2--1--2--1--------2--1-----]
D|--6--------------------2--4--------4--]
A|-----------------------------2--------]
E|-----2--------------------------------]
  F#m                      Bsus4      
Damang-dama na ang ugong nito


E|--------------------------------0-----------------]
B|-----0--0--0--0--------------0--------------------]
G|-----2-----------2--1-----------------4-----------]
D|-----2-----------------4-----------4-----7--6--4--]
A|--0-----------2-----------4-----------------------]
E|--------------------------------------------------]
Aadd9      Bsus4   C#m
    Di pa ba sapat ang sakit at lahat

E|--------------------------------------------]
B|--------------------------------------------]
G|-----------2--1--2--1-----------------------]
D|-----2--4--------------7--6--7--6--7--6--4--]
A|--0--------2-----------4--------------------]
E|--------------------------------------------]
Aadd9       Bsus4            C#m
     Na hinding hindi ko ipararanas sa’yo?


E|--------------------------------]
B|-----0--0--0--2--4--5--4--------]
G|-----2-----------------------6--]
D|-----2--------------------6-----]
A|--0--------2-----------4--------]
E|--------------------------------]
Aadd9    Bsus4           C#m
     Ibinubunyag  ka ng iyong matang


E|-----------------------0--]
B|--------------------0--0--]
G|-----2--1--2--1--2-----4--]
D|--6--------------------4--]
A|-----------------------2--]
E|-----2--------------------]
  F#m        Bsus4 
Sumisigaw ng pagsinta


[Chorus 1]

E|-----------0--2--4--]
B|--0--0--2-----2--2--]
G|--------------------]
D|--------------------]
A|--------------0-----]
E|--------------------]
             Aadd9   
Ba’t di pa patulan


E|-----------0--2--4--]
B|--0--0--2-----2--2--]
G|--------------------]
D|--------------------]
A|--------------4-----]
E|--------------------]
              Bsus4 C#m
Ang pagsuyong nag---kulang?


E|-----------0--2--4--]
B|--0--0--2-----2--2--]
G|--------------------]
D|--------------------]
A|--------------0-----]
E|--------------------]
        Bsus4  Aadd9
Tayong uma-----asang 


E|-----------0--2--4--]
B|--0--0--2-----2--2--]
G|--------------------]
D|--------------------]
A|--------------4-----]
E|--------------------]
         Bsus4 C#m
Hilaga’t kan---luran


E|--0--5/7--5--4--2--0--]
B|----------------2-----]
G|----------------------]
D|----------------------]
A|----------------0-----]
E|----------------------]
         Bsus4 Aadd9
Ikaw ang han---tungan


E|--------0--2--4--2--------]
B|--0--2-----2--------5--2--]
G|--------------------------]
D|--------------------------]
A|-----------4--------------]
E|--------------------------]
             C#m
At bilang kanlungan mo


E|--0--0-----0-----0-----0--]
B|--------4-----4-----0--0--]
G|-----------------------4--]
D|-----------------------4--]
A|-----------------------2--]
E|-----2--------------------]
 F#m                  Bsus4            
Ako ang sasagip sa’yo


E|--4--------2-----------------]
B|-----2--------2-----7-----5--]
G|--------2--------4-----6-----]
D|-----------------------------]
A|--0--------2--------4--------]
E|-----------------------------]

E|-----------0--2-----0--------------]
B|--------0--------2-----7-----5--7--]
G|-----2--------------------6--------]
D|-----------------------------------]
A|--0-----------2--------4-----------]
E|-----------------------------------]


[Interlude]

Aadd9  Bsus4  C#m (2x)


[Verse 2]

E|-----------------------------------------]
B|-----0--0--0--------------0--2--4--5--2--]
G|-----2--------2--1-----------------------]
D|-----2--------------4--6-----------------]
A|--0--------2--------4--------------------]
E|-----------------------------------------]
Aadd9     Bsus4    C#m
     Saan nga ba patungo?  (San ba patungo?)


E|--------------------------------------]
B|-----0--0--0--0-----------------------]
G|-----2-----------2--1--------4--------]
D|-----2-----------------4--4-----6-----]
A|--0-----------2-----------4--------7--]
E|--------------------------------------]
Aadd9       Bsus4      C#m
      Nakayapak at nahihiwagaan na


E|-----------------------------]
B|-----0--0--0--2--4--4--5-----]
G|-----2--------------------6--]
D|-----2-----------------------]
A|--0--------2--------4--------]
E|-----------------------------]
Aadd9       Bsus4    C#m
     Ang bagyo ng tadhana ay 


E|-----------------------------------0--0--]
B|-----------------------------0--0--0--0--]
G|-----2--1--2--1--2--1--2--2--------------]
D|--6--------------------------------------]
A|--------------------------------2--------]
E|-----2-----------------------------------]
  F#m                   Bsus4      
Dinadala ako sa init ng bisig mo


[Chorus 2]

E|-----------0--2--4--]
B|--0--0--2-----2--2--]
G|--------------------]
D|--------------------]
A|--------------0-----]
E|--------------------]
             Aadd9
Ba’t di pa sabihin


E|-----------0--2--4--]
B|--0--0--2-----2--2--]
G|--------------------]
D|--------------------]
A|--------------4-----]
E|--------------------]
             Bsus4 C#m
Ang hindi mo ma----amin?


E|-----------0--2--4--]
B|--0--0--2-----2--2--]
G|--------------------]
D|--------------------]
A|--------------0-----]
E|--------------------]
    Bsus4 Aadd9                
Ipauu-----baya 

E|-----------0--2--4--]
B|--0--0--2-----2--2--]
G|--------------------]
D|--------------------]
A|--------------4-----]
E|--------------------]
            Bsus4    C#m
Na lang ba ‘to sa hangin?


E|--0--5/7--5--4--2--0--]
B|----------------2-----]
G|----------------------]
D|----------------------]
A|----------------0-----]
E|----------------------]
         Bsus4 Aadd9       
‘Wag mo ika----takot 


E|-----------0--0--2--4--2--------]
B|--0--0--2--------2--------5--2--]
G|--------------------------------]
D|--------------------------------]
A|-----------------4--------------]
E|--------------------------------]
                  C#m
Ang bulong ng damdamin mo


E|--------------------------------0--0--]
B|--0--0--------------------0--0-----0--]
G|--------2--2--1--2--1--2--------------]
D|--------------------------------------]
A|-----------------------------2--------]
E|-----2--------------------------------]
  F#m                Bsus4  
Naririto ako’t nakikinig sa’yo


E|--2--0-----------------]
B|-----0--4--2-----4--5--]
G|-----2-----4--4--------]
D|-----2-----------------]
A|-----------2-----4-----]
E|-----------------------]

E|--2--0-----------------]
B|-----0--4--2-----4--5--]
G|-----2-----4--4--------]
D|-----2-----------------]
A|-----------2-----4-----]
E|-----------------------]


[Outro]

Aadd9  Bsus4 C#m  (2x)

            
            
Suggest correction
Creating personal tab
Creating personal tab
You can edit any tab online and save it as your Personal.

You can edit, replace or remove any tab part or add personal notes – all changes will be seen only by you.

Personal tabs can be accessed anytime from any device, even offline.
Learn more »
Give kudos to tab author, rate the tab!
1 2 3 4 5
comments
print report bad tab
1 comment total.
0 reply
jazminebailey09 157 Dec 03, 2016 12:32 PM

Wow!! NICE Tab

guest
You may want to rate the tab now too:
select rating
Wanna post a correction for this tab? Suggest correction