Oops, an error
Loading. Please wait.

Unspoken Definites Tab

2,793 views 6 this week
no commentswrite comment
1 2 3 4 5
2 more votes to show rating
add to favorites
launch autoscroll
font size
0
reset
how to read this tab
guitar tuner
Autoscroll
slow
fast
+/-
esc
set tempo
stop
Help us to improve Ultimate-Guitar.com Take our survey!
×
Author
UNSPOKEN DEFINITES by Up Dharma Down


INTRO:

e|------------------|
B|-4-4-xx-4-4-4-xxx-|
G|-4-4-xx-4-4-4-xxx-|
D|-2-2-xx-2-2-2-xxx-|
A|------------------|
E|------------------|

e|------------------    ------------------|
B|-4-4-xx-4-4-4-xxx-    -2-2-xx-2-2-2-xxx-|
G|-4-4-xx-4-4-4-xxx- 2x -2-2-xx-2-2-2-xxx-| 2x
D|-2-2-xx-2-2-2-xxx-    -0-0-xx-0-0-0-xxx-|
A|------------------    ------------------|
E|------------------    ------------------|


VERSE:
  Taunting the waves and...
e|---------------------------------|
B|-----------------------4-4-4-4-5-|
G|-----------------------4-4-4-4-4-|
D|-----------------------2-2-2-2-2-|
A|---------------------------------|
E|---------------------------------|

 Taunting the waves and...
e|---------------------------------|
B|-----------------------4-4-4-4-2-|
G|-----------------------4-4-4-4-2-| 2x
D|-----------------------2-2-2-2-0-|
A|---------------------------------|
E|---------------------------------|

e|----------------------|
B|-4-4-4-4-5-xx-4-4-5-x-|
G|-4-4-4-4-4-xx-4-4-4-x-| 2x
D|-2-2-2-2-2-xx-2-2-2-x-|
A|----------------------|
E|----------------------|

e|----------------------|
B|-4-4-4-4-2-xx-4-4-2-x-|
G|-4-4-4-4-2-xx-4-4-2-x-| 2x
D|-2-2-2-2-0-xx-2-2-0-x-|
A|----------------------|
E|----------------------|


CHORUS:
A
 This is the color of my silver lining made of gold
G
 Here comes the storybook hero that I once was told of
A
 And I roll away descend the pull of gravity
G
 Insert denial here the things even the blind can see

B
 I've got everything to lose
            G
 So why not lose it anyway
B                             G
 All I needed from you was to sing

 What I had to say

(intro...)
Yeah yeah....

NITRAM
05-05-10
9:37AM
Suggest correction
Give kudos to tab author, rate the tab!
1 2 3 4 5
comments
print report bad tab
guest
You may want to rate the tab now too:
select rating
Wanna post a correction for this tab? Suggest correction