Oops, an error
Loading. Please wait.

We Give In Sometimes Bass Tab

2,278 views 3 this week
no commentswrite comment
1 2 3 4 5
2 more votes to show rating
add to favorites
launch autoscroll
font size
0
reset
guitar tuner
Autoscroll
slow
fast
+/-
esc
set tempo
stop
Help us to improve Ultimate-Guitar.com Take our survey!
×
Author
Difficulty
intermediate
|My first Tab|
|I really like this song and its resounding Bassline|
|for emails about this tab, send them to mastakilla_49@yahoo.com|
|Thanks to my girlfriend and my bands for this, they inspired me to create this|



[Intro] [00:26]

E|111-------------111---------------------------------------------|
a|-----333-------3-----333-------3111-------------111-------------|
d|--------3336663---------3336663------333-------3-----333-------3|
g|----------------------------------------2223332---------2223332-|


E|111-------------111---------------------------------------------|
a|-----333-------3-----333-------3111-------------111-------------|
d|--------3336663---------3336663------333-------3-----333-------3|
g|----------------------------------------2223332---------2223332-|


[Verse] [00:52]

E|111-------------111---------------------------------------------|
a|-----333-------3-----333-------3111-------------111-------------|
d|--------3336663---------3336663------333-------3-----333-------3|
g|----------------------------------------2223332---------2223332-|


E|111-------------111---------------------------------------------|
a|-----333-------3-----333-------3111-------------111-------------|
d|--------3336663---------3336663------333-------3-----333-------3|
g|----------------------------------------2223332---------2223332-|
                                                   
                                                  
[Pre-chorus] [01:19]                                 
                                              
E|---------------------------------------------------------------------|
a|555-----333-----111----------------555-----333-----111---------------|
d|---3----------------------------------3------------------------------|
g|-----------2-------3--------------------------2-------3--------------|


E|---------------------------------------------------------------------|
a|555-----333-----111----------------555-----333-----1111------------3\|
d|---3----------------------------------3\---------------3333---3---3--|
g|-----------2-------3--------------------------2\-----------3p2-3p2---|


[Chorus] [01:46]

E|111-------------111---------------------------------------------|
a|-----333-------3-----333-------3111-------------111-------------|
d|--------3336663---------3336663------333-------3-----333-------3|
g|----------------------------------------2223332---------2223332-|


E|111-------------111---------------------------------------------|
a|-----333-------3-----333-------3111-------------111-------------|
d|--------3336663---------3336663------333-------3-----333-------3|
g|----------------------------------------2223332---------2223332-|


[Second Verse] [02:12]

E|111-------------111---------------------------------------------|
a|-----333-------3-----333-------3111-------------111-------------|
d|--------3336663---------3336663------333-------3-----333-------3|
g|----------------------------------------2223332---------2223332-|

E|111-------------111---------------------------------------------|
a|-----333-------3-----333-------3111-------------111-------------|
d|--------3336663---------3336663------333-------3-----333-------3|
g|----------------------------------------2223332---------2223332-|
				
					
[Second Pre-chorus] [02:38]
					
E|---------------------------------------------------------------------|
a|555-----333-----111----------------555-----333-----111---------------|
d|---3----------------------------------3------------------------------|
g|-----------2-------3--------------------------2-------3--------------|
						
							
E|---------------------------------------------------------------------|
a|555-----333-----111----------------555-----333-----1111------------3\|
d|---3----------------------------------3\---------------3333---3---3--|
g|-----------2-------3--------------------------2\-----------3p2-3p2---|
							
								
[Second Chorus] [03:05]
							
E|333-------------333----------------------------------------------|
a|-----555-------5-----555---------333-------------333-------------|
d|--------5557775---------5557777-------555-------5-----555-------5|
g|-------------------------------4\--------4445554---------4445554-|
								
E|333-------------333----------------------------------------------|
a|-----555-------5-----555---------333-------------333-------------|
d|--------5557775---------777-----------555-------5-----555-------5|
g|---------------------------4445\---------4445554---------4445554-|
								
								
[Bridge] [03:32]
								
E|1~------3\1~--3\|
a|----------------|
d|----------------|
g|----------------|

E|333-------------333---------------------------------------------|
a|-----555-------5-----555-------5333-------------333-------------|
d|--------5557775---------5557775------555-------5-----555-------5|
g|----------------------------------------4445554---------4445554-|

E|333-------------333---------------------------------------------|
a|-----555-------5-----555-------5333-------------333-------------|
d|--------5557775---------5557775------555-------5-----555-------5|
g|----------------------------------------4445554---------4445554-|


[Last Chorus] [04:04]

E|333-------------333---------------------------------------------|
a|-----555-------5-----555--------333-------------333-------------|
d|--------5557775---------555777-5-----555-------5-----555-------5|
g|------------------------------4---------4445554---------4445554-|

E|333-------------333---------------------------------------------|
a|-----555-------------555--------333-------------333-------------|
d|--------5557777---------555777-5-----555-------5-----555-------5|
g|---------------4--------------4---------4445554---------4445554-|

[Outro] [04:31]

E|333-------------333---------------------------------------------|
a|--------5p45p4------------------333-------------3~--------------|
d|----------------------------------------------------------------|
g|----------------------------------------------------------------|

E|3~--------------------------------------------------------------|
a|----------------------------------------------------------------|
d|----------------------------------------------------------------|
g|----------------------------------------------------------------|



Legend
|p-pull      |
|~-ring      |
|\-slide down|
Suggest correction
Give kudos to tab author, rate the tab!
1 2 3 4 5
comments
print report bad tab
guest
You may want to rate the tab now too:
select rating
Wanna post a correction for this tab? Suggest correction