Oops, an error
Loading. Please wait.

Cuando Vuelvas Tab

by Upa!
194 views 1 this week
no commentswrite comment
1 2 3 4 5
3 more votes to show rating
add to favorites
launch autoscroll
font size
0
reset
how to read this tab
guitar tuner
×
Best way to learn
"Cuando Vuelvas"
Autoscroll
slow
fast
+/-
esc
set tempo
stop
Intro:1ª Guitarra.
         
                                                            Gsus9                  
e|------------------------|------------------------||------------------------|
B|------4-----------3-----|------4-----------3-----||------4-----------3-----|
G|----5---5-------3---3---|----5---5-------4---4---||----5---5-------3---3---|
D|--5-----------3---------|--6-----------5---------||--5-----------3---------|
A|------------------------|------------------------||------------------------|
E|------------------------|------------------------||------------------------|

     C/A7                        F#9                        Dmdis8
e|------------------------||------------------------|------------------------|
B|------4-----------3-----||------4-----------3-----|------4-----------3-----|
G|----5---5-------4---4---||----5---5-------3---3---|----5---5-------4---4---|
D|--6-----------5---------||--5-----------3---------|--6-----------5---------|
A|------------------------||------------------------|------------------------|
E|------------------------||------------------------|------------------------|

     Gsus9                      C/A7
e|--------------------------|--------------------------||
B|-------4------------3-----|-------4------------3-----||
G|-----5---5--------3---3---|-----5---5--------4---4---||
D|---5------------3---------|---6------------5---------||
A|--------------------------|--------------------------||
E|--------------------------|--------------------------||


Gsus9:            C/A7:            F#9:             Dmdis8:
e|--(9)----11--|  e|--(7)----9--|  e|----14------|  e|----11------|
B|---9---------|  B|---7--------|  B|----14------|  B|----11------|
G|-8-----------|  G|-6----------|  G|-13---------|  G|-10---------|
D|XXXXXXXXXXXXX|  D|xxxxxxxxxxxx|  D|XXXXXXXXXXXX|  D|xxxxxxxxxxxx|
A|XXXXXXXXXXXXX|  A|xxxxxxxxxxxx|  A|XXXXXXXXXXXX|  A|xxxxxxxxxxxx|
E|XXXXXXXXXXXXX|  E|xxxxxxxxxxxx|  E|XXXXXXXXXXXX|  E|xxxxxxxxxxxx|
 
             
 
                            Cuando vuelvas
                            -------------- (Sebastián Piga)

     Gm        Dm        Gm       D
A) Cuando vuelvas, quiero verte a solas
    Gm        Dm        Gm       D
  y contarte todas estas cosas
   Gm        Dm        Gm       D
  ayudarte a sacarte la ropa 
    Gm        Dm        Gm       D
    Gm        Dm        Gm       D
         \         /
          (Parte D)

      Gm       Dm       Gm      D   
B) Cuando vuelvas,quiero poder verte
    Gm       Dm       Gm       D 
  abrazarte hasta perder el frío
   Gm       Dm       Gm       D
  cuando vuelvas                
   Gm       Dm        Gm      D \
   Gm       Dm        Gm      D  [se acompaña con la parte D]
                                /
(Parte D)/(sigue con la intro:Dmdis8-F#9-C/A7-Gsus9)

     Gm       Dm         Gm         D
A) Cuando vuelvas, quiero verte a solas
    Gm      Dm      Gm       D
  y contarte todas estas cosas
   Gm      Dm      Gm      D
  ayudarte a sacarte la ropa
   Gm       Dm      Gm     D\                            
   Gm       Dm      Gm     D [se acompaña con la parte D]
                            /
     Gm       Dm       Gm       D
B) Cuando vuelvas, quiero poder verte
    Gm       Dm       Gm       D 
  abrazarte hasta perder el frío
   Gm       Dm       Gm       D  
  cuando vuelvas
   Gm       Dm       Gm       D   \
    Gm       Dm       Gm       D   \
  cuando vuelvas                    \
    Gm       Dm       Gm       D     \
  cuando vuelvas                      
                                       [se acompaña con la parte D,
     Am       Em       Am      E     /  y en LA parte C se sube un tono]
C) Cuando vuelvas                   /
    Am       Em       Am      E    / 
  cuando vuelvas                  /
  
  Gm       Dm      Gm       D\
  Gm       Dm      Gm       D [SE REPITE 6 VECES]
(Parte D)                    /

    Am      Em      Am      E \
C) Cuando vuelvas              \
   Am      Em      Am      E    \
  cuando vuelvas                 [se le sube un tono a la parte D]
   Am      Em      Am      E
  cuando vuelvas                /
   Am      Em      Am      E   /
  cuando vuelvas              /

  Dmdis8= acorde final


Gm:          Dm:          D:           Am:          Em:          E:
e|---3----|  e|---1----|  e|---2----|  e|---5----|  e|---3----|  e|---4----|
B|---3----|  B|---3----|  B|---3----|  B|---5----|  B|---5----|  B|---5----|
G|---3----|  G|---2----|  G|---2----|  G|---5----|  G|---4----|  G|---4----|  
D|xxxxxxxx|  D|xxxxxxxx|  D|xxxxxxxx|  D|xxxxxxxx|  D|xxxxxxxx|  D|xxxxxxxx|
A|xxxxxxxx|  A|xxxxxxxx|  A|xxxxxxxx|  A|xxxxxxxx|  A|xxxxxxxx|  A|xxxxxxxx|
E|xxxxxxxx|  E|xxxxxxxx|  E|xxxxxxxx|  E|xxxxxxxx|  E|xxxxxxxx|  E|xxxxxxxx|


Parte D:

e|----------------------------|---------------------------------|
B|----------------------------|---------------------------------|
G|----------------------3-----|----------------------5-5--3-----|
D|---3h5--3h5--3h5--3h5---3---|---3h5--3h5--3h5--3h5--------3---|
A|----------------------------|---------------------------------|
E|----------------------------|---------------------------------|

Parte D(elevado un tono)

e|----------------------------|---------------------------------|
B|----------------------------|---------------------------------|
G|----------------------5-----|----------------------7-7--5-----|
D|---5h7--5h7--5h7--5h7---5---|---5h7--5h7--5h7--5h7--------5---|
A|----------------------------|---------------------------------|
E|----------------------------|---------------------------------|


*****************************Cuando vuelvas(bajo)*****************************
                             ---------------

G|---------------|---------------------|
D|---5-----5-0---|-------------3--5----|
A|---------------|---3-----3-5---------|
E|---------------|---------------------|

(Parte D cuando se sube un tono)

G|---------------|---------------------|
D|---7-----7-2---|-------------5--7----|
A|---------------|---5-----5-7---------|
E|---------------|---------------------|


Fecha: 07/06/99
Hora: 16:46 pm.
Transcribido por Esteban Font (never_enougth@
Suggest correction
Give kudos to tab author, rate the tab!
1 2 3 4 5
comments
print report bad tab
guest
You may want to rate the tab now too:
select rating
Wanna post a correction for this tab? Suggest correction