Oops, an error
Loading. Please wait.

El Mariachi tab

version 2
version 2

Whole song

Interactive

1,342 views 3 this week
no commentswrite comment
1 2 3 4 5
2 more votes to show rating
add to favorites
×
Save as Personal and add changes to this tab that will be seen only by you. Learn more ›
×
You can save this tab as Personal to edit and correct it or add notes. All changes will be seen only by you. Learn more »
launch autoscroll
font size
0
reset
how to read this tab
guitar tuner
edit
Autoscroll
slow
fast
+/-
esc
set tempo
stop
Author
Difficulty
-------------------------------------------------------------------------------
                    El Mariachi - Upon A Burning Body
-------------------------------------------------------------------------------
Tabbed by: dante.adurte16
E-mail: cabalisticdesigns@gmail.com

Tuning: EADGBE
Metronome: 60/96
e|---------------------------------------------------------------------------|
B|---------------------------------------------------------------------------|
G|--9--------9--10--9----7--------7------------------------9-------7---------|
D|--------------------------10-----------9----------7--10-------------10----9|
A|------------------------------------------10---8---------------------------|
E|---------------------------------------------------------------------------|

e|---------------------------------------------------------------------------|
B|---------------------------------------------------------------------------|
G|----------------------------------------------7--9--9--9--10--9--7---9--7--|
D|-----6---------7--9--10--9--7-----7--9----10-------------------------------|
A|---------7-----------------------------------------------------------------|
E|---------------------------------------------------------------------------|

e|---------------------------------------------------------------------------|
B|----------------------------------------------8----------------------------|
G|-----7-----------------7---10---7------------------------------------------|
D|-10-----10--9--10-------------------9--------------------------------7--9--|
A|------------------------------------------------------------5--7--8--------|
E|---------------------------------------------------5--7--8-----------------|

e|--------------------------8--10--12--10--8-------------13--12--10--8--10--8|
B|---------------8--10--12--------------------12--10--8----------------------|
G|-----7--9--10--------------------------------------------------------------|
D|-10------------------------------------------------------------------------|
A|---------------------------------------------------------------------------|
E|---------------------------------------------------------------------------|

e|------8--------------------------------------------------------------------|
B|--12-----12--10--12--10--8--10--8------8-----------------------------------|
G|-----------------------------------10-----10--9--10--9--7--9--7------7-----|
D|-----------------------------------------------------------------10-----10-|
A|---------------------------------------------------------------------------|
E|---------------------------------------------------------------------------|

e|---------------------------------------------------------------------------|
B|---------------------------------------------------------------------------|
G|-----------------------------------9--10---9--7------------------------9--7|
D|-9--10--9--7--9--7------7---9--10----------------10--9-------7--9--10------|
A|--------------------10------------------------------------7----------------|
E|---------------------------------------------------------------------------|

e|---------------------------------------------------------------------------|
B|---------------------------------------------------------------------------|
G|-------------------9--7-----------------12--10--9-----------------12--10--9|
D|--10-----7--9--10--------10------9--10-------------12------9--10-----------|
A|------7----------------------10------------------------10------------------|
E|---------------------------------------------------------------------------|

e|------------------------------------------------------4--4--4--4--4--8--8--|
B|---------------------------------------------------------------------------|
G|------------------------------------------------------1--1--1--1--1--5--5--|
D|--12---9--10--9--7--9--7------9--10--9--7--9--7----------------------------|
A|--------------------------10---------------------10------------------------|
E|---------------------------------------------------------------------------|

e|-8--8--8--7--7--7--7--7--7--7--7--7--7--7----------------------------------|
B|---------------------------------------------------------------------------|
G|-5--5--5--4--4--4--4--4--4--4--4--4--4--4----------------9--7--------------|
D|-----------------------------------------------7--9--10--------10-----7--9-|
A|--------------------------------------------7----------------------7-------|
E|---------------------------------------------------------------------------|

e|---------------------------------------------------------------------------|
B|---------------------------------------------------------------------------|
G|-----9--7---------------------9--10--12--10--9-------------10--9-----------|
D|-10--------10------9--10--12--------------------12--10--9---------12--10--9|
A|---------------10----------------------------------------------------------|
E|---------------------------------------------------------------------------|

e|-------------------------------------------------------------------------4-|
B|---------------------------------------------------------------------------|
G|-------------------------------------------------------------------------1-|
D|----------------7--9--10--9--10--9--7--9--7------9--10--9--7--9--7---------|
A|--12--7--8--10-------------------------------10---------------------10-----|
E|---------------------------------------------------------------------------|

e|-4--4--4--4--8--8--8--8--8--7--7--7--7--7--7---------------------5--5--5--5|
B|---------------------------------------------------------------------------|
G|-1--1--1--1--5--5--5--5--5--4--4--4--4--4--4--4--2--1--4--3--1---2--2--2--2|
D|----------------------------------------------5--3--2--5--2--2-------------|
A|----------------------------------------------5--3--2--5--2--2-------------|
E|----------------------------------------------3--1--0--3--1--0-------------|

e|--8--8--7--7--7--7--10-8--7--7--8--8--7--7--5--5--7--7--8--8--7--4--4--4--4|
B|---------------------------------------------------------------------------|
G|--5--5--4--4--4--4--7--5--4--4--5--5--4--4--2--2--4--4--5--5--4--1--1--1--1|
D|---------------------------------------------------------------------------|
A|---------------------------------------------------------------------------|
E|---------------------------------------------------------------------------|

e|--4--4--4--4--4--4--4--4--4--4--4--4--8--8--8--8--7--7--4--4--7--7--8--8--7|
B|---------------------------------------------------------------------------|
G|--1--1--1--1--1--1--1--1--1--1--1--1--5--5--5--5--4--4--1--1--4--4--5--5--4|
D|---------------------------------------------------------------------------|
A|---------------------------------------------------------------------------|
E|---------------------------------------------------------------------------|

e|--7--10-10-10-10-----------------------------------------------------------|
B|---------------------------------------------------------------------------|
G|--4--7--7--7--7--------------------------------------5--6-----7--6-----7--6|
D|-----------------7-----8--7-----8--7-----8--7-----8--------6--------6------|
A|--------------------7--------7--------7--------7---------------------------|
E|---------------------------------------------------------------------------|

e|---------------------------------------------------------------------------|
B|---------------------------------------------------------------------------|
G|-----7---------------9--7----------------------------12--10--9------9------|
D|--6--------7--9--10--------10--9--10------9--10--12-------------12-------9-|
A|--------7-----------------------------10-----------------------------------|
E|---------------------------------------------------------------------------|

e|---------------------------------------------------------------------------|
B|---------------------------------------------------------------------------|
G|------------------------------9-----8-----7--------------------------------|
D|-10--9--7--9--7------7--9-----------------------10-----9--10--9-----7--9---|
A|-----------------10--------7-----7-----7-----7------7------------7---------|
E|---------------------------------------------------------------------------|

e|---------------------------------------------------------------------------|
B|---------------------------------------------------------------------------|
G|-----9--7----------------------------12--10--9------9----------------------|
D|-10--------10--9--10------9--10--12-------------12-----9--10--9--7--9--7---|
A|----------------------10---------------------------------------------------|
E|---------------------------------------------------------------------------|

e|---------------------------------------------------------------------------|
B|-------------------------------------------------5--5--5--5--5--5--5--8--8-|
G|--------------9-----8-----7----------------------5--5--5--5--5--5--5--7--7-|
D|-----7--9-----------------------10-----9--10--9--7--7--7--7--7--7--7--9--9-|
A|-10--------7-----7-----7-----7------7------------7--7--7--7--7--7--7--10-10|
E|---------------------------------------------------------------------------|

e|---------------------------------------------------------------------------|
B|-8--8--8--8--6--6--6--6--6--5--5--5--5--5--5--5--5--5--------5--------5----|
G|-7--7--7--7--5--5--5--5--5--4--4--4--4--4--4--4--4-----4--------4--------4-|
D|-9--9--9--9--7--7--7--7--7--6--6--6--6--6--6--6--6--------6--------6-------|
A|-10-10-10-10-8--8--8--8--8--7--7--7--7--7--7--7--7-------------------------|
E|---------------------------------------------------------------------------|

e|-------------------------------------------------------------8--10--12-----|
B|----5--------5-----5------------------------------8--10--12----------------|
G|-------4--------4--4--------------------7--9--10---------------------------|
D|-6--------6--------6-----------6--7--9-------------------------------------|
A|-------------------7--5--7--8----------------------------------------------|
E|---------------------------------------------------------------------------|

************************************

| /   slide up
| \   slide down
| h   hammer-on
| p   pull-off
| ~   vibrato
| +   harmonic
| x   Mute note
| b   Bend
| pb  Pre-bend
| br  Bend release
| pbr Pre-bend release
| brb Bend release bend

************************************

            
            
Suggest correction
Creating personal tab
Creating personal tab
You can edit any tab online and save it as your Personal.

You can edit, replace or remove any tab part or add personal notes – all changes will be seen only by you.

Personal tabs can be accessed anytime from any device, even offline.
Learn more »
Give kudos to tab author, rate the tab!
1 2 3 4 5
comments
print report bad tab
guest
You may want to rate the tab now too:
select rating
Wanna post a correction for this tab? Suggest correction