Oops, an error
Loading. Please wait.

El Mariachi tab

version 3
version 3

Whole song

Interactive

274 views 9 this week
no commentswrite comment
1 2 3 4 5
2 more votes to show rating
add to favorites
×
Save as Personal and add changes to this tab that will be seen only by you. Learn more ›
×
You can save this tab as Personal to edit and correct it or add notes. All changes will be seen only by you. Learn more »
launch autoscroll
font size
0
reset
how to read this tab
guitar tuner
edit
Autoscroll
slow
fast
+/-
esc
set tempo
stop
Tabbed By: Andy
Standard Tuning (EADGBe)
*****************************************************************************
/=slide
h=hammer on
p=pull off
*=Palm Mute (below measures)
x= Dead note
*****************************************************************************



e|------------------------------------------------------------------------------------|
B|------------------------------------------------------------------------------------|
G|-/9---9h10--9--7----7----7-------------------9----7--5------------------------------|
D|-----------------10-------9-------7-7------7------------9----9-9---9p6--------------|
A|---------------------------10---8-------8-------------------------------------------|
E|------------------------------------------------------------------------------------|
                           *************                       * *
e|------------------------------------------------------------------------------------|
B|------------------------------------------------------------------------------------|
G|----------------------------------7--9-9-9-9--10-9-7----9-7----7--------------------|
D|--7--9--10--9--7------7--9--10------------------------------10----10-9-10-----------|
A|------------------------------------------------------------------------------------|
E|------------------------------------------------------------------------------------|


e|------------------------------------------------------------------------------------|
B|----------------8-------------------------------------------------------------------|
G|--/7--10--7-------------------------------------------------------------------------|
D|-------------9----------------------------------------------------------------------|
A|------------------------------------------------------------------------------------|
E|------------------------------------------------------------------------------------|

e|-----------------------------------8-10-12-10-8---------13-12-10-8-10-8---8---------|
B|---------------------------8-10-12--------------12-10-8-----------------12----------|
G|--------------------7-9-10----------------------------------------------------------|
D|-------------7-9-10-----------------------------------------------------------------|
A|-------5-7-8------------------------------------------------------------------------|
E|-5-7-8------------------------------------------------------------------------------|


e|------------------------------------------------------------------------------------|
B|-12-10-12-10-8-10-8----8------------------------------------------------------------|
G|--------------------10----10-9-7-------------------------9h10--9------7-------------|
D|---------------------------------10-9-7-------7--9--10-------------------10--9------|
A|----------------------------------------10------------------------------------------|
E|------------------------------------------------------------------------------------|

e|------------------------------------------------------------------------------------|
B|------------------------------------------------------------------------------------|
G|----------9-7------------------9-7--------------------------------------------------|
D|---7-9-10-----10--------7-9-10-----10-----------------------------------------------|
A|-7--------------------7-------------------------------------------------------------|
E|------------------------------------------------------------------------------------|



e|------------------------------------------------------------------------------------|
B|----------8-------------------8-----------------------------------------------------|
G|------------10-9-7--------------10-9-7----------------------------------------------|
D|-----9-10----------------9-10-------------------------------------------------------|
A|--10------------------10------------------------------------------------------------|
E|------------------------------------------------------------------------------------|

e|------------------------------------------------------------------------------------|
B|------------------------------------------------------------------------------------|
G|------------------------------------------------------------------------------------|
D|--9-10-9-7-9-7-------9-10-9-7-9-7---------------------------------------------------|
A|---------------10-----------------10------------------------------------------------|
E|------------------------------------------------------------------------------------|


e|-4---4-4-4-4--8--8-8-8-8---10-10-10-10-10-10-10-------------------------------------|
B|-x---x-x-x-x--x--x-x-x-x---x--x--x--x--x---x--x-------------------------------------|
G|-1---1-1-1-1--5--5-5-5-5---7--7--7--7--7---7--7-------------------------------------|
D|------------------------------------------------------------------------------------|
A|------------------------------------------------------------------------------------|
E|------------------------------------------------------------------------------------|


e|------------------------------------------------------------------------------------|
B|------------------------------------------------------------------------------------|
G|----------9-7----------------9-7----------------------------------------------------|
D|---7-9-10-----10------7-9-10-----10-------------------------------------------------|
A|-7------------------7---------------------------------------------------------------|
E|------------------------------------------------------------------------------------|


e|------------------------------------------------------------------------------------|
B|------------------------------------------------------------------------------------|
G|------------9-10-12-10-9----------10-9----------------------------------------------|
D|----9-10-12--------------12-10-9-------12-10-9------------7-9-10--------------------|
A|-10--------------------------------------------12--7-8-10---------------------------|
E|------------------------------------------------------------------------------------|


e|------------------------------------------------------------------------------------|
B|------------------------------------------------------------------------------------|
G|------------------------------------------------------------------------------------|
D|-9-10-9-7-9-7-----9-10-9-7-9-7------------------------------------------------------|
A|--------------10---------------10---------------------------------------------------|
E|------------------------------------------------------------------------------------|


e|-4---4-4-4-4--8--8-8-8-8---7--7-7-7-7-----------------------------------------------|
B|-x---x-x-x-x--x--x-x-x-x---x--x-x-x-x-----------------------------------------------|
G|-1---1-1-1-1--5--5-5-5-5---4--4-4-4-4-----------------------------------------------|
D|----------------------------------------------2-----2-x-x---2-x-x--2----------------|
A|----------------------------------------5--3--2-----2-x-x---2-x-x--2----------------|
E|----------------------------------------3--1--0-----0-x-x---0-x-x--0----------------|

e|------------------------------------------------------------------------------------|
B|------------------------------------------------------------------------------------|
G|------------------------------------------------------------------------------------|
D|-----2---2-x-x---2-x-x--2--x-x-x-x--------------------------------------------------|
A|-5-3-2---2-x-x---2-x-x--2--x-x-x-x--------------------------------------------------|
E|-3-1-0---0-x-x---0-x-x--0--x-x-x-x--------------------------------------------------|



e|-5------------8-------------7------------10--8------7--8--7--5--7--8--7--4----------|
B|-x------------x-------------x------------x---x------x--x--x--x--x--x--x--x----------|
G|-2------------5-------------4------------7---5------4--5--4--2--4--5--4--1----------|
D|------------------------------------------------------------------------------------|
A|------------------------------------------------------------------------------------|
E|------------------------------------------------------------------------------------|
These first three octaves are strummed     | The 4th and 5th octaves of this measure are
alot so listen to the song and play by ear | strummed once, again listen to the song
                                           |
e|-8--7--5--7--8--7--10-------12------------------------------------------------------|
B|-x--x--x--x--x--x--x--------x-------------------------------------------------------|
G|-5--4--2--4--5--4--7--------9-------------------------------------------------------|
D|------------------------------------------------------------------------------------|
A|------------------------------------------------------------------------------------|
E|------------------------------------------------------------------------------------|
The last octave on this measure (the 9/12 octave) is only hit once

e|------------------------------------------------------------------------------------|
B|------------------------------------------------------------------------------------|
G|------------------------------6---7-6---7-6---7-6---7-------------------------------|
D|-8-7---8-7---8-7---8-7----------6-----6-----6-----6---------------------------------|
A|-----7-----7-----7-----7------------------------------------------------------------|
E|------------------------------------------------------------------------------------|


e|------------------------------------------------------------------------------------|
B|-------------------------------------8----------------------------------------------|
G|-----------9-7-----------------------------10-9-7----7------------------------------|
D|----7-9-10-----10-9-10----------9-10--------------10--------------------------------|
A|--7--------------------------10-----------------------------------------------------|
E|------------------------------------------------------------------------------------|


e|------------------------------------------------------------------------------------|
B|------------------------------------------------------------------------------------|
G|-------------------------9-x-8-x-7--------------------------------------------------|
D|-9-10-9-7-9-7----7-9---------------10-x-9h10p9--------------------------------------|
A|--------------10--------------------------------------------------------------------|
E|------------------------------------------------------------------------------------|


e|------------------------------------------------------------------------------------|
B|-------------------------------------8----------------------------------------------|
G|-----------9-7-----------------------------10-9-7----7------------------------------|
D|----7-9-10-----10-9-10----------9-10--------------10--------------------------------|
A|--7--------------------------10-----------------------------------------------------|
E|------------------------------------------------------------------------------------|


e|------------------------------------------------------------------------------------|
B|------------------------------------------------------------------------------------|
G|-------------------------9-x-8-x-7--------------------------------------------------|
D|-9-10-9-7-9-7----7-9---------------10-x-9h10p9--------------------------------------|
A|--------------10--------------------------------------------------------------------|
E|------------------------------------------------------------------------------------|



There is one more part, the ending chords of the song that i haven't quiet figured out yet,
i will update the tab once i do figure them out assuming i remember that i actually tabbed out 
something

**********************************
I made This tab because i tried learning this song a few weeks ago but found
that there wasn't reliable tabs on this website, i searched for other tab sites and found
a few more that filled a few gaps, but i was still missing a few main parts of the song.
a good amount of this song i learned by ear. i apologize if there is any error but i have played
along with the audio to the song and it sounds accurate to me.
**********************************
Suggest correction
Creating personal tab
Creating personal tab
You can edit any tab online and save it as your Personal.

You can edit, replace or remove any tab part or add personal notes – all changes will be seen only by you.

Personal tabs can be accessed anytime from any device, even offline.
Learn more »
Give kudos to tab author, rate the tab!
1 2 3 4 5
comments
print report bad tab
guest
You may want to rate the tab now too:
select rating
Wanna post a correction for this tab? Suggest correction