Oops, an error
Loading. Please wait.

Showtime Tab

version 2
version 2

Whole song

4,859 views 3 this week
no commentswrite comment
1 2 3 4 5
excellent!
x 3
add to favorites
launch autoscroll
font size
0
reset
how to read this tab
guitar tuner
Tab Pro tools
  • play this tab
  • loop segment
  • change instrument
  • show fretboard
  • metronome
Autoscroll
slow
fast
+/-
esc
set tempo
stop
Contributor
Difficulty
Tuning
novice
B F# B E G# C#
Song: Showtime
Band: Upon A Burning Body
Tuning: Drop B
0:23-0:34
--5~----------------------------|
--4~----------------------------|
--3~----------------------------|
--2~----------------------------|
-----------6~----4--1~---1--0~-0|
------1/6--6~----4--1~---1--0~-0|
WELCOME TO THE FAMILY!
0:36-0:42
--------------------------------|
--------------------------------|
--------------------------------|
--------------------------------|
--000-0-000-0-000----000-0-000--|
--000-0-000-0-000----000-0-000--|
  ... . ... . ...    ... . ...

--------------------------------|
--------------------------------|
--------------------------------|
--------------------------------|
-000----000-0-000-0-000---000---|
-000----000-0-000-0-000---000---|
 ...    ... . ... . ...   ...

--------------------------------|
--------------------------------|
--------------------------------|
--------------------------------|
-000--00000000------------------|
-000--00000000------------------|
 ...  ........

0:42-0:48
--------------------------------|
--------------------------------|
--------------------------------|
--------------------------------|
-00-----00-----00---------------|
-00-0-0-00-0-0-00-0-------------|
 ..     ..     ..

--------------------------------|
--------------------------------|
--------------------------------|
--------------------------------|
-00-----00---00-----------------|
-00-0-0-00-0-00-0---------------|
 ..     ..   ..

--------------------------------|
--------------------------------|
--------------------------------|
--------------------------------|
-00-----00-----00---------------|
-00-0-0-00-0-0-00-0-------------|
 ..     ..     ..

--------------------------------|
--------------------------------|
--------------------------------|
--------------------------------|
-000-000-00000000---------------|
-000-000-00000000---------------|
 ... ... ........

0:49-1:10
Guitar 1:
--------------------------------|
--------------------------------|
--------------------------5b~---|
----------1/6b-5b~--4-4-5-------|
--1/4b~-------------------------|
--------------------------------|

--------------------------------|
--------------------------------|
--1/7b~-8b~---------------------|
--------------------------------|
-------------------000000---0~--|
-------------------000000---0~--|
                   ......
Guitar 2:
--------------------------------|
--------------------------------|
--------------------------------|
--------------------------------|
--0--000---000000--0--000-------|
--0--000---000000--0--000-------|
  .  ...   ......  .  ...

--------------------------------|
--------------------------------|
--------------------------------|
--------------------------------|
--000-000-000--0-000-0000000----|
--000-000-000--0-000-0000000----|
  ... ... ...  . ... .......

--------------------------------|
--------------------------------|
--------------------------------|
--------------------------------|
--00000--000-000-0000000---0~---|
--00000--000-000-0000000---0~---|
  .....  ... ... .......  

That's it :)

. = Palm Mute
b = bend
~ = hold
/ = Slide

comments
We did not receive enough feedback on this tab! Please rate:
print report bad tab
1 2 3 4 5
I want to post or [tab]
guest
You may want to rate the tab now too:
select rating
Please do not post tabs as comments. Select "correction" instead!