Oops, an error
Loading. Please wait.

A New Beginning Tab

4,330 views 24 this week
no commentswrite comment
1 2 3 4 5
excellent!
x 6
add to favorites
launch autoscroll
font size
0
reset
how to read this tab
guitar tuner
Tab Pro tools
  • play this tab
  • loop segment
  • change instrument
  • show fretboard
  • metronome
×
Best way to learn
"A New Beginning"
Autoscroll
slow
fast
+/-
esc
set tempo
stop
Contributor
Difficulty
Tuning
novice
B F# B E G# C#
Upon This Dawning - A New Beginning
Album: To Keep Us Safe
Year: 2012

Tuning: Drop B
All parts and all guitars.


Tabbed by ADVER





Intro Chord
C#|---|
G#|---|
E-|---|
B-|---|
F#|-0-|
B-|-1-|

00:27
C#|----------------|
G#|----------------|
E-|----------------|
B-|----------------|
F#|-3-1------------|
B-|--0--4-3-1-0-12-|


C#|-------------|
G#|-------------|
E-|-------------|
B-|-------------|
F#|-3-1---------|
B-|--0--4-3-1-3-|

00:38
C#|--------------------|
G#|--------------------|
E-|--------------------|
B-|--------------------|
F#|--------------------|
B-|-000000000-12p0-3p0-|



00:54 G1
Natural Harmonic Low
C#|-----|
G#|-----|
E-|-----|
B-|-----|
F#|-(3)-|
B-|-----|

00:54 G2
Natural Harmonic High
C#|-----|
G#|-----|
E-|-----|
B-|-----|
F#|-(8)-|
B-|-----|


00:55
C#|----------------------------------------------------------------------------------------|
G#|----------------------------------------------------------------------------------------|
E-|----------------------------------------------------------------------------------------|
B-|-0000-0000-000000-0000-0000-000000-----------0000-0000-000000-0000-0000-000000-000------|
F#|-0000-0000-000000-0000-0000-000000-3--1------0000-0000-000000-0000-0000-000000-000------|
B-|-0000-0000-000000-0000-0000-000000---0-4-3-1-0000-0000-000000-0000-0000-000000-000-0000~|
                                                                                  


Chorus
C#|-17---17---------20-----17p18p17--17-------20~--17---------------------|
G#|---18---18--18-----18-----------18--181818----18--18-17--17--17--17-18-|
E-|-----19---19--19-----19--------------------------------19--19--19------|
B-|-----------------------------------------------------------------------|
F#|-----------------------------------------------------------------------|
B-|-----------------------------------------------------------------------|


Chorus Power Chords
C#|-------|
G#|-------|
E-|-----3-|
B-|-0-3-3-|
F#|-0-3-1-|
B-|-0-3---|



Chris Motionless Breakdown
G1
C#|--------------------------------------------------------------|
G#|--------------------------------------------------------------|
E-|--------------------------------------------------------------|
B-|-0-------------0---------------0-------------0--------------0-|
F#|-0-(3)---------0-(3)-----------0-(3)---------0-(3)----------0-|
B-|-0----00-4-3-1-0-----00-1p0-12-0----00-4-3-1-0----00-12p0-1-0-|

G2
C#|--------------------------------------------------------------|
G#|--------------------------------------------------------------|
E-|--------------------------------------------------------------|
B-|-0-------------0---------------0-------------0--------------0-|
F#|-0-(8)---------0-(8)-----------0-(8)---------0-(8)----------0-|
B-|-0----00-4-3-1-0-----00-1p0-12-0----00-4-3-1-0----00-12p0-1-0-|
comments
print report bad tab
I want to post or [tab]
guest
You may want to rate the tab now too:
select rating
Please do not post tabs as comments. Select "correction" instead!