Oops, an error
Loading. Please wait.

Good Grief Bass Tab

428 views 1 this week
no commentswrite comment
1 2 3 4 5
1 last vote to show rating
add to favorites
launch autoscroll
font size
0
reset
guitar tuner
Autoscroll
slow
fast
+/-
esc
set tempo
stop
Help us to improve Ultimate-Guitar.com Take our survey!
×
Author
Difficulty
intermediate
-------------------------------------------------------------------------------
                             Good grief - Urban Dance Squad
-------------------------------------------------------------------------------
Tabbed by: Peter Lok    
E-mail: peter.lok@12move.nl

Tuning: EADG

G|----------------------------------------------------------------|
D|----------------------------------------------------------------|
A|----------------------------------------------------------------| 
E|----------------------------------------------------------------| 3x

G|----------------------------------------------------------------|
D|----------------------------------------------------------------|
A|----------------------------------------------------------------|
E|-----------------------------------------------------------2/9-\|

G|----------------------------------------------------------------|
D|----------------------------------------------------------------|
A|----------------------------------------------------------------|
E|2-2-0-2-----2-2-0-2-----2-2-0-2-5-2-0-2-----2-2-0-2-----5-------| 4 x

G|----------------------------------------------------------------|
D|------------------3---------------------------------------------|
A|5-3-5-3-5---5-3-5---5-3-5-3-------------------------------------|
E|----------------------------5--\1---1-----------3---3-----------| 8 x

G|----------------------------------------------------------------|
D|----------------------------------------------------------------|
A|----------------------------------------------------------------|
E|-----------------------------------------------------------2/9-\|

G|----------------------------------------------------------------|
D|----------------------------------------------------------------|
A|--------------------------------------------------------5-------|
E|2-2-0-2-----2-2-0-2-----2-2-0-2-5-2-0-2-----2-2-0-2-------------|

G|----------------------------------------------------------------|
D|------------------3---------------------------------------------|
A|5-3-5-3-5---5-3-5---5-3-5-3-------------------------------------|
E|----------------------------5--\1---1-----------3---3-----------| 7 x

G|----------------------------------------------------------------|
D|------------------3---------------------------------------------|
A|5-3-5-3-5---5-3-5---5-3-5-3-------------------------------------|
E|----------------------------5--\1---1-----------3---3---------3-| 

G|----------------------------------------------------------------|
D|----------------------------------------------------------------|
A|----------------5-------3-----------------------5-------3-------|
E|5---5---3---5---------------3---5---5---3---5---------------3---| 4 x

G|----------------------------------------------------------------| 
D|----------------------------------------------------------------|
A|--------------------------------------------------------5-------|
E|2-2-0-2-----2-2-0-2-----2-2-0-2-5-2-0-2-----2-2-0-2-------------| 4 x

G|----------------------------------------------------------------|
D|------------------3---------------------------------------------|
A|5-3-5-3-5---5-3-5---5-3-5-3-------------------------------------|
E|----------------------------5--\1---1-----------3---3-----------| 11 x

G|----------------------------------------------------------------|
D|------------------3---------------------------------------------|
A|5-3-5-3-5---5-3-5---5-3-5-3-------------------------------------|
E|----------------------------5--\1---1-----------3---3---------3-| 2x

G|----------------------------------------------------------------|
D|----------------------------------------------------------------|
A|----------------------------------------------------------------|
E|2-2-0-2-----2-2-0-2-----2-2-0-2-5-2-0-2-----2-2-0-2-----5-------| 4x


| /  slide up
| \  slide down
| h  hammer-on
| p  pull-off
| ~  vibrato
| +  harmonic
| x  Mute note
===============================================================================
Suggest correction
Give kudos to tab author, rate the tab!
1 2 3 4 5
comments
print report bad tab
guest
You may want to rate the tab now too:
select rating
Wanna post a correction for this tab? Suggest correction