Oops, an error
Loading. Please wait.

A Method To Chaos tab

version 2
version 2

Whole song

2,087 views 1 this week
2 commentsread comments
1 2 3 4 5
2 more votes to show rating
add to favorites
×
Save as Personal and add changes to this tab that will be seen only by you. Learn more ›
×
You can save this tab as Personal to edit and correct it or add notes. All changes will be seen only by you. Learn more »
launch autoscroll
font size
0
reset
how to read this tab
guitar tuner
edit
Autoscroll
slow
fast
+/-
esc
set tempo
stop
Author
Tabbers playing skills
advanced +
Intro-
1.
GtrI
|----------------------------------------------|  --------------|------|
|----------------------------------------------|  --------------|------|
|----------------------------------------------|  --------------|------|
|----------------------------------------------|3x--------------|-7777-|
|----0-0-12--0-0-14--0-0-15-0-0-14--0-0-10h12--|  -0-0-12-00-14-|-7777-|
|----------------------------------------------|  --------------|-7777-|

GtrII
|-----------------------------------------------           ---------------|
|-----------------------------------------------           ---------------|
|-----------------------------------------------           -----17171717--|
|-77~-------------------------------------------2x         -----x-x-x-x---|
|-77~-------------------------------------------           -----15151515--|
|-77~-------------------------------------------           ---------------|

2.
GtrI
|-------------------------------------------|     
|-------------------------------------------|     
|-------------------------------------------|       
|-------------------------------------------|cont...
|-0-0-12--0-0-14--0-0-15-0-0-14--0-0-10h12--|      
|-------------------------------------------|       


GtrII
|--------------------------------------------------------------|
|--------------------------------------------------------------|
|-14141414141414141414141414-9999999999-9-10-10----------------|
|-x-x-x-x-x-x-x-x-x-x-x-x-x--xxxxxxxxxx-x-x--x-----------------|
|-12121212121212121212121212-7777777777-7/8--8\----------------|
|--------------------------------------------------------------|


|---------------------------------------------------------| 
|---------------------------------------------------------|
|-5555555555555555-77777777777777777----------------------|
|-xxxxxxxxxxxxxxxx-xxxxxxxxxxxxxxxxx----------------------|
|-3333333333333333-55555555555555555----------------------|
|---------------------------------------------------------|

3.

|-------------------------------------------|       --------------------| 
|-------------------------------------------|       --------------------|
|-------------------------------------------|       --------------------|   
|-------------------------------------------|cont...--------5-5-5--10~/-|
|-0-0-12--0-0-14--0-0-15-0-0-14--0-0-10h12--|       --------5-5-5--10~/-|
|-------------------------------------------|       --------5-5-5--10~/-|

|--------------------------------------------|       --------------------| 
|--------------------------------------------|       ---------------13~-/|
|-------11-------12-------14------12---------|       --------------------|
|-10-10----10-10----10-10---10-10---10-10h12-|cont.. --------------------|
|--------------------------------------------|       --------------------|
|--------------------------------------------|       --------------------|
  *  *     *  *     *  *    *  *    *   

Verse-
1
GtrI
|--------------------------------------------------------------|
|--------------------------------------------------------------|
|--------------------------------------------------------------|
|-3~-----------------------------------------------------------|
|-3~-----------------------------------------------------------|
|-3~-----------------------------------------------------------|


GtrII
|--------------------------------------------------------------|
|-10~~~~~~~~~~~~~~~~~~~~~~~~~~~~~------------------------------|
|--------------------------------------------------------------|
|--------------------------------------------------------------|
|--------------------------------------------------------------|
|--------------------------------------------------------------|


2.
|-------------------------------------------|       --------------------| 
|-------------------------------------------|       --------------------|
|-------------------------------------------|       --------------------|   
|-2~ ---------------------------------------|2x     --------5-5-5-5-----|
|-0-0-12--0-0-10--0-0-7--0-0-5--0-0-3h5-----|       --------5-5-5-5-----|
|-------------------------------------------|       --------5-5-5-5-----|

|--------------------------------------------|       --------------------| 
|--------------------------------------------|       --------------------|
|-------11-------12-------14------12---------|       -----12121212-------|
|-10-10----10-10----10-10---10-10---10-10h12-|2x     -----x-x-x-x--------|
|--------------------------------------------|       -----10101010-------|
|--------------------------------------------|       --------------------|
  *  *     *  *     *  *    *  *    *   


3.
GtrI
|--------------------------------------------------------------|
|--------------------------------------------------------------|
|--------------------------------------------------------------|
|-3-3-3-3-3~--5-5-5-5-5-~-7-7-7-7-7~---------------------------|
|-3-3-3-3-3~--5-5-5-5-5-~-7-7-7-7-7~---------------------------|
|-3-3-3-3-3~--5-5-5-5-5-~-7-7-7-7-7~---------------------------|

Pre-

|-------------------------------------------|       --------------------| 
|-------------------------------------------|       --------------------|
|-------------------------------------------|       --------------------|
|-3-3-3-3-3-3-3-3-3-5-5-5-5-5-5-5-5-5-5-5-5-|       --------------------| 
|-3-3-3-3-3-3-3-3-3-5-5-5-5-5-5-5-5-5-5-5-5-|       --------------------|
|-3-3-3-3-3-3-3-3-3-5-5-5-5-5-5-5-5-5-5-5-5-|       --------------------|

|-------------------------------------------|       --------------------| 
|-------------------------------------------|       --------------------|
|-------------------------------------------|       ------12121212------|   
|-------------------------------------------|2x     ------x-x-x-x-------|
|-0-0-12--0-0-10--0-0-7--0-0-5--0-0-3h5-----|        -----10101010------|
|-------------------------------------------|       --------------------|
  * *     * *     * *    * *    * *
Chorus-

GtrI
|-------------------------------------------|     
|-------------------------------------------|     
|-------------------------------------------|       
|-------------------------------------------|cont...
|-0-0-12--0-0-14--0-0-15-0-0-14--0-0-10h12--|      
|-------------------------------------------|       


GtrII
 Am
|--------------------------------------------------------------|
|--------------------------------------------------------------|
|-14141414141414141414141414-9999999999-9-10-10----------------|
|-x-x-x-x-x-x-x-x-x-x-x-x-x--xxxxxxxxxx-x-x--x-----------------|
|-12121212121212121212121212-7777777777-7/8--8\----------------|
|--------------------------------------------------------------|

 F                 G
|---------------------------------------------------------| 
|---------------------------------------------------------|
|-5555555555555555-77777777777777777----------------------| 
|-xxxxxxxxxxxxxxxx-xxxxxxxxxxxxxxxxx----------------------|
|-3333333333333333-55555555555555555----------------------|
|---------------------------------------------------------|

3.

|-------------------------------------------|       --------------------| 
|-------------------------------------------|       --------------------|
|-------------------------------------------|       --------------------|   
|-------------------------------------------|cont...--------5-5-5--10~/-|
|-0-0-12--0-0-14--0-0-15-0-0-14--0-0-10h12--|       --------5-5-5--10~/-|
|-------------------------------------------|       --------5-5-5--10~/-|

|--------------------------------------------|       --------------------| 
|--------------------------------------------|       ---------------13~-/|
|-------11-------12-------14------12---------|       --------------------|
|-10-10----10-10----10-10---10-10---10-10h12-|cont.. --------------------|
|--------------------------------------------|       --------------------|
|--------------------------------------------|       --------------------|
  *  *     *  *     *  *    *  *    * 
Repeat Verse-



Chorus2 Continued

|--------------------------------------------------------------|
|--------------------------------------------------------------|
|--------------------------------------------------------------|
|-3-3-3-3-3-3-5-5-5-5-5-5-5-5-7-7-7-7-7-7-7-7-7--7-7-7-7-7-7-7-|
|-3-3-3-3-3-3-5-5-5-5-5-5-5-5-7-7-7-7-7-7-7-7-7--7-7-7-7-7-7-7-|
|-3-3-3-3-3-3-5-5-5-5-5-5-5-5-7-7-7-7-7-7-7-7-7--7-7-7-7-7-7-7-|
  * *         * *             * *                * *


Chorus3(vox solo)
|--------------------------------------------------------------|
|--------------------------------------------------------------|
|--------------------------------------------------------------|
|-7~-----------------------------------------------------------|
|-7~-----------------------------------------------------------|
|-7~-----------------------------------------------------------|

|--------------------------------------------------------------|
|--------------------------------------------------------------|
|-------------------141414141414141414141414141414141414141414-|
|-------------------x-x-x-x-x-x-x-x-x-x-x-x-x-x-x-x-x-x-x-x-x--|
|--1212121212121212-121212121212121212121212121212121212121212-|
|--------------------------------------------------------------|

|------------------------------------|
|------------------------------------|
|--1717171717171717-1616161616161616-|
|--x-x-x-x-x-x-x-x---x-x-x-x-x-x-x-x-|
|--1515151515151515-1414141414141414-|
|------------------------------------|

|--------------------------------------|
|--------------------------------------|
|-141414141414141414141414141414141414-|
|-x-x-x-x-x-x-x-x-x-x-x-x-x-x-x-x-x-x--|
|-121212121212121212121212121212121212-|
|--------------------------------------|


Breakdown

|---------------|-----------------|-------------------|-----------------|
|---------------|-----------------|-------------------|-----------------|
|---------------|-----------------|-------------------|-----------------|
|-3-3-3-3-3-3-3-|-5-5-5-5-5-5-5-5-|-7-7-7-7-7-7-7-7-7-|-7-7-7-7-7-7-7-7-|
|-3-3-3-3-3-3-3-|-5-5-5-5-5-5-5-5-|-7-7-7-7-7-7-7-7-7-|-7-7-7-7-7-7-7-7-|
|-3-3-3-3-3-3-3-|-5-5-5-5-5-5-5-5-|-7-7-7-7-7-7-7-7-7-|-7-7-7-7-7-7-7-7-|
  * * * * * * *   * * * * * * * *   * * * * * * * * *   * * * * * * * * * 

|-------------------------------------------|        
|-------------------------------------------|       
|-------------------------------------------|          
|-------------------------------------------|4x     
|-0-0-12--0-0-10--0-0-7--0-0-5---0-3h5------|        
|-------------------------------------------|
  * *     * *     * *    * *


Chorus-

GtrI
|---------------|-----------------|-------------------|-----------------|
|---------------|-----------------|-------------------|-----------------|
|---------------|-----------------|-------------------|-----------------|
|-3-3-3-3-3-3-3-|-5-5-5-5-5-5-5-5-|-7-7-7-7-7-7-7-7-7-|-7-7-7-7-7-7-7-7-|
|-3-3-3-3-3-3-3-|-5-5-5-5-5-5-5-5-|-7-7-7-7-7-7-7-7-7-|-7-7-7-7-7-7-7-7-|
|-3-3-3-3-3-3-3-|-5-5-5-5-5-5-5-5-|-7-7-7-7-7-7-7-7-7-|-7-7-7-7-7-7-7-7-|
     


GtrII

|-----------------------------------------------------------------------|
|-----------------------------------------------------------------------|
|-5555555555555555-77777777777777777-9999999999999999-101010101010101010|
|-xxxxxxxxxxxxxxxx-xxxxxxxxxxxxxxxxx-xxxxxxxxxxxxxxxx-x-x-x-x-x-x-x-x-x-|
|-3333333333333333-55555555555555555-7777777777777777-8-8-8-8-8-8-8-8-8-|
|-----------------------------------------------------------------------|

|-----------------------------------------------------------------------|
|-----------------------------------------------------------------------|
|--101010101010101010-1212121212121212-141414141414141414--999999999999-|
|--x-x-x-x-x-x-x-x-x--x-x-x-x-x-x-x-x--x-x-x-x-x-x-x-x-x---xxxxxxxxxxxx-|
|--8-8-8-8-8-8-8-8-8--1010101010101010-121212121212121212--777777777777-|
|-----------------------------------------------------------------------|


|-----------------------------------------------------------------------|
|-----------------------------------------------------------------------|
|-1212121212121212------------------------------------------------------|
|-x-x-x-x-x-x-x-x-------------------------------------------------------|
|-1010101010101010------------------------------------------------------|
|-----------------------------------------------------------------------|


then
|--------------------------------------------------------------|
|--------------------------------------------------------------|
|--------------------------------------------------------------|
|-3-3-3-3-3-3-5-5-5-5-5-5-5-5-7-7-7-7-7-7-7-7-7--7-7-7-7-7-7-7-|
|-3-3-3-3-3-3-5-5-5-5-5-5-5-5-7-7-7-7-7-7-7-7-7--7-7-7-7-7-7-7-|
|-3-3-3-3-3-3-5-5-5-5-5-5-5-5-7-7-7-7-7-7-7-7-7--7-7-7-7-7-7-7-|
  * *         * *             * *                * *


Outro-

GtrI
|--------------------------------------------------------------|
|--------------------------------------------------------------|
|--------------------------------------------------------------|
|-3-3--xxxx----3-3----xxxx----3-3----xxxx--------3-3----xxxx---|
|-3-3--xxxx----3-3----xxxx----3-3----xxxx--------3-3----xxxx---|
|-3-3--xxxx----3-3----xxxx----3-3----xxxx--------3-3----xxxx---|
  * *         * *             * *                * *
GtrII
|-------------------------------------------|     
|-------------------------------------------|     
|-------------------------------------------|       
|-------------------------------------------|cont...
|-0-0-12--0-0-14--0-0-15-0-0-14--0-0-10h12--|      
|-------------------------------------------| 




            
            
Suggest correction
Creating personal tab
Creating personal tab
You can edit any tab online and save it as your Personal.

You can edit, replace or remove any tab part or add personal notes – all changes will be seen only by you.

Personal tabs can be accessed anytime from any device, even offline.
Learn more »
Give kudos to tab author, rate the tab!
1 2 3 4 5
comments
print report bad tab
2 comments total.
0 reply
guitarkoto 10 Jan 17, 2008 10:41 PM

pwede na rin***medyo nakalito pero ok na rin

0 reply
jin14 10 Nov 09, 2008 05:15 AM

...okay tab mo pre... sana ginawa mo na lang ganito 'yung guitar 1... A chord lang...

|----------------------------------|
|----------------------------------|
|----------------------------------|
|-----7-----9-----10-----9-----5h7-|
|----------------------------------|
|-7-7---7-7---7-7----7-7---7-7-----|

...saka 'yung part 3 ng intro, parang mas bagay 'yung A kesa dun sa G...

...pero galing mo pa rin pre...

guest
You may want to rate the tab now too:
select rating
Wanna post a correction for this tab? Suggest correction