Oops, an error
Loading. Please wait.

Alert The Armory tab

version 5
version 5

Whole song

Interactive

718 views 3 this week
no commentswrite comment
1 2 3 4 5
3 more votes to show rating
add to favorites
×
Save as Personal and add changes to this tab that will be seen only by you. Learn more ›
×
You can save this tab as Personal to edit and correct it or add notes. All changes will be seen only by you. Learn more »
launch autoscroll
font size
0
reset
how to read this tab
guitar tuner
edit
Autoscroll
slow
fast
+/-
esc
set tempo
stop
Alert The Armory  (Lead & Rhythm)

Intro
D#|----------------------------||
A#|----------------------------||
F#|---------5-----5------------||
C#|-------7-----7--------------|| x6
G#|-0h5-5-----5------7-8-7-5---||
C#|----------------------------||

D#|--------------------------------------||
A#|--------------------------------------||
F#|-------14--12--14--------14--12--14---||
C#|-8-8-8--x---x---x--8-8-8-x---x---x----||
G#|-8-8-8-12--10--12--8-8-8-12--10--12---||
C#|-8-8-8-------------8-8-8--------------||
    . . .             . . .

D#|---------------------------||
A#|---------------------------||
F#|---------5-----5-----------||
C#|-------7-----7-------------|| x2
G#|-0h5-5-----5-----7-8-7-5---||
C#|---------------------------||

D#|------------------------------------------------||
A#|------------------------------------------------||
F#|-------14--12--14--------14--12--14-------------||
C#|-------x---x---x---------x---x---x---0-0-0-0~---||
G#|-------12--10--12--------12--10--12--0-0-0-0~---||
C#|-0-0-0-------------0-0-0-------------0-0-0-0~---||
    . . .             . . .             . . .

Verse 1
D#|------------------------------------------------------||
A#|------------------------------------------------------||
F#|------------------------------------------------------||
C#|--------------------------------------------0-0-0-0~--||
G#|-888-12-8-10-888-12-8-888-12-8-10-888-12-8--0-0-0-0~--||
C#|--------------------------------------------0-0-0-0~--||
                                               . . .
D#|--12-------12---------------------------------------------------------||
A#|-----12---------------------------------------------------------------||
F#|--------12------------------------------------------------------------||
C#|---------------------------------------------------------------0-3-8--||
G#|-------------------888-12-8-10-888-12-8--888-12-8-10-888-12-8--0-3-8--||
C#|---------------------------------------------------------------0-3-8--||
   --delay-------

Pre-Chorus
D#|----------------------------------------------------||
A#|----------------------------------------------------||
F#|----------------------------------------------------||
C#|--8-8-8-8--10~-11-10-12s2--0-3-8---10~-10~-5555555--||
G#|--8-8-8-8------------------0-3-8-----------5555555--||
C#|--8-8-8-8------------------0-3-8-----------5555555--||

Chorus
D#|-------------------------------------------------------||
A#|-------------------------------------------------------||
F#|-7-7-9-7-7-17-19-14------------------------------------||
C#|-x-x-x-x-x-x--x--x---x3--0-0-0-3-0-0-0-8-8-5-5-5--0~---||
G#|-5-5-7-5-5-15-17-12------0-0-0-3-0-0-0-8-8-5-5-5--0~---||
C#|-------------------------0-0-0-3-0-0-0-8-8-5-5-5--0~---||

Rpt. Some parts of intro (listen to track)

Verse 2
D#|-12--12--12--12--12--12--12--12---------||
A#|---10--10--10--10--10--10--10--10-------||
F#|----------------------------------------||
C#|-----------------------------------0~---||
G#|-----------------------------------0~---||
C#|-----------------------------------0~---||

D#|-12--12--12--12--12--12--12--12-------||
A#|---10--10--10--10--10--10--10--10-----||
F#|--------------------------------------||
C#|--------------------------------------||
G#|--------------------------------------||
C#|--------------------------------------||

D#|----------------------------------------------------------------------||
A#|-----------------------------------------------10-10-10------11-11-11-||
F#|------------------------------------------------9--9--9------10-10-10-||
C#|--0-0-0-0-0-0-0-0-10-10-10-10-10-10-10-10-8-8-8---------8-8-8---------||
G#|--0-0-0-0-0-0-0-0-10-10-10-10-10-10-10-10-8-8-8---------8-8-8---------||
C#|--0-0-0-0-0-0-0-0-10-10-10-10-10-10-10-10-8-8-8---------8-8-8---------||

Rpt. pre-chorus but add this at end
D#|---------------------||
A#|---------------------||
F#|---------------------||
C#|--8-8-8-8-8-8-8------||
G#|--8-8-8-8-8-8-8------||
C#|--8-8-8-8-8-8-8------||

Rpt.Chorus (less high octave notes)

Outro solo
D#|------------------------------------------||
A#|------------------------------------------||
F#|-10-9-777-10-9-777-10-9-10-10h12-10-9-7---|| x2
C#|------------------------------------------||
G#|------------------------------------------||
C#|------------------------------------------||

---------------------------------------------------------------------------

Rhythm
Intro (figure out strumming)
D#|-----------------------------------------||
A#|-----------------------------------------||
F#|-----------------------------------------||
C#|-0-0-00-0-0-0-0---8888--8888-----000-0~--||
G#|-0-0-00-0-0-0-0---8888--8888--x2-000-0~--||
C#|-0-0-00-0-0-0-0---8888--8888-----000-0~--||
                                    ...

the rest can be figured out from the lead tabs.
just add more of the lower notes and less high octave notes.

            
            
Suggest correction
Creating personal tab
Creating personal tab
You can edit any tab online and save it as your Personal.

You can edit, replace or remove any tab part or add personal notes – all changes will be seen only by you.

Personal tabs can be accessed anytime from any device, even offline.
Learn more »
Give kudos to tab author, rate the tab!
1 2 3 4 5
comments
print report bad tab
guest
You may want to rate the tab now too:
select rating
Wanna post a correction for this tab? Suggest correction