Oops, an error
Loading. Please wait.

Frailty tab

version 3
version 3

Whole song

2,223 views 1 this week
no commentswrite comment
1 2 3 4 5
3 more votes to show rating
add to favorites
×
Save as Personal and add changes to this tab that will be seen only by you. Learn more ›
×
You can save this tab as Personal to edit and correct it or add notes. All changes will be seen only by you. Learn more »
launch autoscroll
font size
0
reset
how to read this tab
guitar tuner
edit
Autoscroll
slow
fast
+/-
esc
set tempo
stop
Author
Title: Frailty
Artist: Urbandub
Album: Embrace
Tabbed by:xEph
          xephtcetera@yahoo.com
          www.facebook.com/dualreality

Tuning: Drop D  half step down
Legend: / - slide
       () - ghost notes
        h - hammer
	p - pull-off
	x - dead note
	* - play several times
	~ - Let it ring


*For corrections, suggestions,etc... Just post it here or message me personally.* 

*Just listen carefully to the song to get the timing.* 


Intro (distortion)

Riff 1: Gtrs 1 & 2

Eb|-----------------------------------------------------------||
Bb|-----------------------------------------------------------||
Gb|-----------------------------------------------------------|| 
Db|--33333-----------------5-55/7777----------------(7)-(5h5)-||
Ab|--33333--10101010\5555--5-55/7777--10101010\5555s-7---5h7--||
Db|--33333-----------------5-55/7777-----------------7---5h7--||
  |                                                           ||
Eb|-----------------------------------------------------------||
Bb|-----------------------------------------------------------||
Gb|-----------------------------------------------------------|| 
Db|--33333-----------------5-55/7777----------------(7)-(5h5)-||
Ab|--33333-----------------5-55/7777-----------------7---5h7--||
Db|--33333-----------------5-55/7777-----------------7---5h7--||


Eb|----------------------------------------------------------||
Bb|----------------------------------------------------------||
Gb|----------------------------------------------------------|| 
Db|--33333-----------------5-55/7777-------------------------||
Ab|--33333--10101010\5555--5-55/7777--10101010\5555----------||
Db|--33333-----------------5-55/7777-------------------------||
  |							     ||	 
Eb|----------------------------------------------------------||
Bb|----------------------------------------------------------||
Gb|----------------------------------------------------------|| 
Db|--33333-----------------5-55/7777-------------------------||
Ab|--33333-----------------5-55/7777-------------------------||
Db|--33333-----------------5-55/7777-------------------------||


Riff 2: Gtrs 1 & 2

Eb|--------------------------------------------------------------||
Bb|--------------------------------------------------------------||
Gb|--------------------------------------------------------------|| 
Db|--33333-----------------5-55/7777-----------------------------||
Ab|--33333--10101010\5555--5-55/7777--10101010\5555--------------||
Db|--33333-----------------5-55/7777-----------------------------||
  |							         ||	
Eb|--------------------------------------------------------------||
Bb|-----10~------------------------------------------8-10-(8)10--||
Gb|-----------9-10--9h10-10/12-1212\10-1010\9-9-7/9--------------||
Db|------------------------(x)-x-x--x--x-x--x-x-x-x--------------||
Ab|------------------------(10)1010\8--8-8-\7-7-5/7--------------||
Db|--------------------------------------------------------------||


Eb|-----------------------------------------------------||
Bb|-----------------------------------------------------||
Gb|-----------------------------------------------------|| 
Db|--33333-----------------5-55/7777--------------------||
Ab|--33333--10101010\5555--5-55/7777--10101010\55555/7--||
Db|--33333-----------------5-55/7777--------------------||
  |					 	        ||	
Eb|-----------------------------------------------------||
Bb|--10~------------------------------------------------||
Gb|-----------9-10--9h10-10/12-1212\10-1010\9-9-7/9-----||
Db|------------------------(x)-x-x--x--x-x--x-x-x-x-----||
Ab|------------------------(10)1010\8--8-8-\7-7-5/7-----||
Db|-----------------------------------------------------||


Verse 1

Riff 3: Gtr 1 only

                This bottle is bringing me 
Eb|-------3------3------3------3---||
Bb|----5------5------5------5------||
Gb|---5--5---5--5---5--5---5--5----||
Db|--3--3---3--3---0--0---0--0-----||
Ab|--------------------------------||
Db|--------------------------------||
    
      down...      No comfort for me in this town                  
Eb|-------3------3------3--(3)~----||
Bb|----5------5------5------5~-----||
Gb|---5--5---5--5---5--5----5~-----||
Db|--3--3---3--3---0--0----(0)~----||
Ab|--------------------------------||
Db|--------------------------------||

Riff 4: bass & Gtr 1

                     All the faith in these eyes Lost the glow and just 
Eb|---------------------------------------------------------------||
Bb|---------------------------------------------------------------||
Gb|-----------------------------------------------------------77--||
Db|--33-33-33-00-33-33-33-00-55-22-77-77-77-55-77-77-77-55-77-----||
  |							          ||	 
Eb|---------------------------------8~----------------------------||
Bb|-(5)~---------------(5)~--(5)~---8~-w/delay--------------------||
Gb|--5~-----------------5~---(5)~--(9)~---------------------------||
Db|--3~-----------------3~----------------------------------------||
Ab|---------------------------------------------------------------||
Db|---------------------------------------------------------------||

    die...           I  pray, redeem this heart  And be here now. 
Eb|---------------------------------------------------------------||
Bb|---------------------------------------------------------------||
Gb|-----------------------------------------------------------77--||
Db|--33-33-33-00-33-33-33-00-55-22-77-77-77-55-77-77-77-55-77-----||
  |							          || 
Eb|---------8--------------8--------------------------------------||
Bb|-----10-8-10-8h10---10-8-10-8h1010101010101010/12121212131313--||
Gb|--9h10-----------9h10-----------9-9-9-9-9-9-9-/12121212121212--||
Db|---------------------------------------------------------------||
Ab|---------------------------------------------------------------||
Db|---------------------------------------------------------------||



Prechorus 1 (Distortion)

Riff 5: Gtrs 1 & 2

Eb|--------------------------------------------||
Bb|--------------------------------------------||
Gb|--------------------------------------------||
Db|-3~------------------5~---------------------||
Ab|-3~------------------5~---------------------||
Db|-3~------------------5~---------------------||
  |					       || 	
Eb|------------------7~-8*~w/delay-------------||
Bb|-10-----------10----------------------------||
Gb|--(9)10p910p9*------------------------------||
Db|--------------------------------------------||
Ab|--------------------------------------------||
Db|--------------------------------------------||


Chorus 1: (Distortion)


Riff 6: Gtrs 1 & 2
         
 In this war...              The tears in my eyes says it 
Eb|----------------------------------------------||
Bb|----------------------------------------------||
Gb|----------------------------------------------|| 
Db|-xxxx-3333333333------------77777777-5555555--||
Ab|-xxxx-3333333333-10101010\5-77777777-5555555--||
Db|-xxxx-3333333333------------77777777-5555555--||
  |					         || 
Eb|----------------------------------------------||
Bb|----------------------------------------------||
Gb|----------------------------------------------|| 
Db|-xxxx-3333333333------------77777777-5555555--||
Ab|-xxxx-3333333333------------77777777-5555555--||
Db|-xxxx-3333333333------------77777777-5555555--||


      all...               Put all of my faith in you 
Eb|------------------------------------------||
Bb|------------------------------------------||
Gb|------------------------------------------|| 
Db|--3333333333------------77777777-5555555--||
Ab|--3333333333-10101010\5-77777777-5555555--||
Db|--3333333333------------77777777-5555555--||
  |				             || 
Eb|------------------------------------------||
Bb|------------------------------------------||
Gb|------------------------------------------|| 
Db|--3333333333------------77777777-5555555--||
Ab|--3333333333------------77777777-5555555--||
Db|--3333333333------------77777777-5555555--||
Eb|------------------------------------------||

       now...               When all of the world says We wont
Eb|------------------------------------------||
Bb|------------------------------------------||
Gb|------------------------------------------|| 
Db|--3333333333------------77777777-5555555--||
Ab|--3333333333-10101010\5-77777777-5555555--||
Db|--3333333333------------77777777-5555555--||
  |				             || 
Eb|------------------------------------------||
Bb|------------------------------------------||
Gb|------------------------14141414-12121212-|| 
Db|--3333333333-------------x-x-x-x--x-x-x-x-||
Ab|--3333333333------------12121212-10101010-||
Db|--3333333333------------------------------||


     make it through   We’ll battle the world. 
Eb|------------------------------------------||
Bb|------------------------------------------||
Gb|------------------------------------------|| 
Db|--33333333333333333333-5555555555555555---||
Ab|--33333333333333333333-5555555555555555---||
Db|--33333333333333333333-5555555555555555---||
  |				             || 
Eb|------------------------------------------||
Bb|------------------------------------------||
Gb|--9(9)10-12-99(9)-10-12-99(9)-10-12(10)9~-|| 
Db|------------------------------------------||
Ab|------------------------------------------||
Db|------------------------------------------||


Riff 7: Gtrs 1 & 2

Eb|------------------------------------||
Bb|------------------------------------||
Gb|------------------------------------||
Db|--777-7777-77-77-5-777-7777-77-77-5~|| for both guitars
Ab|--777-7777-77-77-5-777-7777-77-77-5~||
Db|--777-7777-77-77-5-777-7777-77-77-5~||


Verse 2

Riff 8: Bass & Gtr 1
           
      I feel so alone      The situation’s desperate      Until...  
Eb|---------------------------------------------------------------||
Bb|---------------------------------------------------------------||
Gb|-----------------------------------------------------------77--||
Db|--33-33-33-00-33-33-33-00-55-22-77-77-77-55-77-77-77-55-77-----||
  |							          ||	 
Eb|---------------------------------------------------------------||
Bb|---------------------------------------------------------------||
Gb|---------------------------------------------------------------||
Db|---------------------------------------------------------------||
Ab|---------------------------------------------------------------||
Db|---------------------------------------------------------------||

    I’ve found my life  again I  drown     So save me now 
Eb|---------------------------------------------------------------||
Bb|---------------------------------------------------------------||
Gb|-----------------------------------------------------------77--||
Db|--33-33-33-00-33-33-33-00-55-22-77-77-77-55-77-77-77-55-77-----||
  |							          || 
Eb|---------8--------------8--------------------------------------||
Bb|-----10-8-10-8h10---10-8-10-8h1010101010101010/12121212131313--||
Gb|--9h10-----------9h10-----------9-9-9-9-9-9-9-/12121212121212--||
Db|---------------------------------------------------------------||
Ab|---------------------------------------------------------------||
Db|---------------------------------------------------------------||



Prechorus 2

Riff 9: Gtrs 1 & 2

       Breathe new life in me… 
Eb|--------------------------------------------||
Bb|--------------------------------------------||
Gb|--------------------------------------------||
Db|-3~------------------5~---------------------||
Ab|-3~------------------5~---------------------||
Db|-3~------------------5~---------------------||
  |					       || 	
Eb|------------------7~-8*~w/delay-------------||
Bb|-10-----------10----------------------------||
Gb|--(9)10p910p9*------------------------------||
Db|--------------------------------------------||
Ab|--------------------------------------------||
Db|--------------------------------------------||

Chorus 2

Riff 10: Gtrs 1 & 2
      
 In this war...              The tears in my eyes says it 
Eb|----------------------------------------------||
Bb|----------------------------------------------||
Gb|----------------------------------------------|| 
Db|-xxxx-3333333333------------77777777-5555555--||
Ab|-xxxx-3333333333-10101010\5-77777777-5555555--||
Db|-xxxx-3333333333------------77777777-5555555--||
  |					         || 
Eb|----------------------------------------------||
Bb|----------------------------------------------||
Gb|----------------------------------------------|| 
Db|-xxxx-3333333333------------77777777-5555555--||
Ab|-xxxx-3333333333------------77777777-5555555--||
Db|-xxxx-3333333333------------77777777-5555555--||


      all...               Put all of my faith in you 
Eb|------------------------------------------||
Bb|------------------------------------------||
Gb|------------------------------------------|| 
Db|--3333333333------------77777777-5555555--||
Ab|--3333333333-10101010\5-77777777-5555555--||
Db|--3333333333------------77777777-5555555--||
  |				             || 
Eb|------------------------------------------||
Bb|------------------------------------------||
Gb|------------------------------------------|| 
Db|--3333333333------------77777777-5555555--||
Ab|--3333333333------------77777777-5555555--||
Db|--3333333333------------77777777-5555555--||
Eb|------------------------------------------||

       now...               When all of the world says We wont
Eb|------------------------------------------||
Bb|------------------------------------------||
Gb|------------------------------------------|| 
Db|--3333333333------------77777777-5555555--||
Ab|--3333333333-10101010\5-77777777-5555555--||
Db|--3333333333------------77777777-5555555--||
  |				             || 
Eb|------------------------------------------||
Bb|------------------------------------------||
Gb|------------------------14141414-12121212-|| 
Db|--3333333333-------------x-x-x-x--x-x-x-x-||
Ab|--3333333333------------12121212-10101010-||
Db|--3333333333------------------------------||

     make it through   We’ll battle the world. 
Eb|------------------------------------------||
Bb|------------------------------------------||
Gb|------------------------------------------|| 
Db|--33333333333333333333-5555555555555555---||
Ab|--33333333333333333333-5555555555555555---||
Db|--33333333333333333333-5555555555555555---||
  |				             || 
Eb|------------------------------------------||
Bb|------------------------------------------||
Gb|--9(9)10-12-99(9)-10-12-99(9)-10-12-10-9~-|| 
Db|------------------------------------------||
Ab|------------------------------------------||
Db|------------------------------------------||


Bridge (Distortion)

Riff 11: Gtrs 1 & 2 
   
   I greet the  morning   sky The sun dries tears in my 
Eb|--------------------------------------------||
Bb|--------------------------------------------||
Gb|--------------------------------------------|| 
Db|-10-10-10-10-10-10-10-10---2-2-2-2-2-2-2-2--||
Ab|-10-10-10-10-10-10-10-10---2-2-2-2-2-2-2-2--||
Db|-10-10-10-10-10-10-10-10---2-2-2-2-2-2-2-2--||
  | 					       ||	
Eb|--------------------------------------------||
Bb|--------------------------------------------||
Gb|------------5/7-5/7-5-7-99-7/99-7-99-7/99(9)|| 
Db|------------xxx-xxx-x-x-xx-x-xx-x-xx-x-xx(x)||
Ab|------------3/5-3/5-3-5-77-5/77-5-77-5/77(7)||
Db|--------------------------------------------||

   eyes...  Awaken this sleeping heart of mine And be here
Eb|--------------------------------------------||
Bb|--------------------------------------------||
Gb|--------------------------------------------|| 
Db|-10--9-10-10-10-10-10-10---2-2-2-2-2-2-2-2--||
Ab|-10--9-10-10-10-10-10-10---2-2-2-2-2-2-2-2--||
Db|-10--9-10-10-10-10-10-10---2-2-2-2-2-2-2-2--||
  | 					       ||	
Eb|--------------------------------------------||
Bb|--------------------------------------------||
Gb|------------5/7-5/7-5-7-99-7/99-7-99-7/99(9)|| 
Db|------------xxx-xxx-x-x-xx-x-xx-x-xx-x-xx(x)||
Ab|------------3/5-3/5-3-5-77-5/77-5-77-5/77(7)||
Db|--------------------------------------------||

    now… 
Eb|------------------------------------------------------||
Bb|------------------------------------------------------||
Gb|------------------------------------------------------||
Db|--3~--------------5~----------------------------------||
Ab|--3~--------------5~----------------------------------||
Db|--3~--------------5~----------------------------------||
  |							 || 
Eb|------------------------------------------------------||
Bb|--10~-------10~12~13~12~13-15p13-15p13-15p13~w/delay--||
Gb|-----9~10~9-------------------------------------------||
Db|------------------------------------------------------||
Ab|------------------------------------------------------||
Db|------------------------------------------------------||


Eb|----------------------||
Bb|----------------------||
Gb|----------------------|| 
Db|--777777777--55555x---|| for both Gtrs
Ab|--777777777--55555x---||
Db|--777777777--55555x---||

Chorus 3

Riff 12: Gtrs 1 & 2

this war                  The tears in my eyes says it  
Eb|------------------------------------------||
Bb|------------------------------------------||
Gb|------------------------------------------|| 
Db|--3333333333------------77777777-5555555--||
Ab|--3333333333-10101010\5-77777777-5555555--||
Db|--3333333333------------77777777-5555555--||
  |				             || 
Eb|-------8----------------------------------||
Bb|--10-8---10(10)---------------------------||
Gb|----------------99(9)h10--12-10-9-7-7h9---|| 
Db|------------------------------------------||
Ab|------------------------------------------||
Db|------------------------------------------||

      all...               Put all of my faith in you 
Eb|------------------------------------------||
Bb|------------------------------------------||
Gb|------------------------------------------|| 
Db|--3333333333------------77777777-5555555--||
Ab|--3333333333-10101010\5-77777777-5555555--||
Db|--3333333333------------77777777-5555555--||
  |				             || 
Eb|-------8----------------------------------||
Bb|--10-8---10(10)---------------------------||
Gb|----------------99(9)h10--12-10-9-7-7~~---|| 
Db|------------------------------------------||
Ab|------------------------------------------||
Db|------------------------------------------||

       now...               When all of the world says We wont
Eb|------------------------------------------||
Bb|------------------------------------------||
Gb|------------------------------------------|| 
Db|--3333333333------------77777777-5555555--||
Ab|--3333333333-10101010\5-77777777-5555555--||
Db|--3333333333------------77777777-5555555--||
  |				             || 
Eb|------------------------------------------||
Bb|------------------------------------------||
Gb|------------------------14141414-12121212-|| 
Db|--3333333333-------------x-x-x-x--x-x-x-x-||
Ab|--3333333333------------12121212-10101010-||
Db|--3333333333------------------------------||


     make it through   We’ll battle the world. 
Eb|------------------------------------------||
Bb|------------------------------------------||
Gb|------------------------------------------|| 
Db|--33333333333333333333-5555555555555555---||
Ab|--33333333333333333333-5555555555555555---||
Db|--33333333333333333333-5555555555555555---||
  |				             || 
Eb|------------------------------------------||
Bb|------------------------------------------||
Gb|--9(9)10-12-99(9)-10-12-------------------|| 
Db|-----------------------5555555555555555---||
Ab|-----------------------5555555555555555---||
Db|-----------------------5555555555555555---||

Bridge 2

Riff 13: Gtrs 1 & 2

            Awaken this sleepin heart of mine  Awaken 
Eb|--------------------------------------------||
Bb|--------------------------------------------||
Gb|--------------------------------------------|| 
Db|-10-10-10-10-10-10-10-10---2-2-2-2-2-2-2-2--||
Ab|-10-10-10-10-10-10-10-10---2-2-2-2-2-2-2-2--||
Db|-10-10-10-10-10-10-10-10---2-2-2-2-2-2-2-2--||
  | 					       ||	
Eb|--------------------------------------------||
Bb|--------------------------------------------||
Gb|----------5/7-5/7-5-7-99-7/99-7-99-7/99(9)--|| 
Db|----------xxx-xxx-x-x-xx-x-xx-x-xx-x-xx(x)--||
Ab|----------3/5-3/5-3-5-77-5/77-5-77-5/77(7)--||
Db|--------------------------------------------||

 this heart...          Awaken this sleeping 
Eb|--------------------------------------------||
Bb|--------------------------------------------||
Gb|--------------------------------------------|| 
Db|-10---10---10---10---10---10---10---10------|| *Counts are not changed.
Ab|-10---10---10---10---10---10---10---10------|| I just adjusted it to fit with Gtr. 2*
Db|-10---10---10---10---10---10---10---10------||
  | 					       ||	
Eb|--------------------------------------------||
Bb|-8-10-8-----------------5-5-5-5-5/7/9(9)----||
Gb|-------10-9-7--7-9-7----x-x-x-x-x/x-x-x-----|| 
Db|-------------10-----10--3-3-3-3-3/5/7(7)----||
Ab|--------------------------------------------||
Db|--------------------------------------------||

 heart of mine...
Eb|--------------------------------------------||
Bb|--------------------------------------------||
Gb|--------------------------------------------|| 
Db|-2---2---2---2---2---2---2---2---2---2--2---||
Ab|-2---2---2---2---2---2---2---2---2---2--2---||
Db|-2---2---2---2---2---2---2---2---2---2--2---||
  | 					       ||	
Eb|--------------------------------------------||
Bb|-8-10-8-----------------9-9-9-9-9/10-10(10)-||
Gb|-------10-9-7--7-9-7----x-x-x-x-x/x--x-(x)--|| 
Db|-------------10-----10--7-7-7-7-7/8--8-(8)--||
Ab|--------------------------------------------||
Db|--------------------------------------------||

Outro

Last Riff: Gtrs 1 & 2

Eb|----------------------------------------------||
Bb|----------------------------------------------||
Gb|----------------------------------------------|| 
Db|--33333333333333333333--55555555555555555555--||
Ab|--33333333333333333333--55555555555555555555--||
Db|--33333333333333333333--55555555555555555555--||
  |				                 || 
Eb|----------------------------------------------||
Bb|----------------------------------------------||
Gb|--9(9)10-12-99(9)-10-12-9(9)10-12-99(9)-10-12-||
Db|--x-x-x---x-xx-x--x--x--x-x-x---x-xx-x--x--x--||
Ab|--7(7)8--10-77(7)-8--10-7(7)8--10-77(7)-8--10-||
Db|----------------------------------------------||


Eb|--------------------------------------------||
Bb|--------------------------------------------||
Gb|--------------------------------------------||
Db|--777---7777---77---77---5-777-7777-77-77-5~|| 
Ab|--777---7777---77---77---5-777-7777-77-77-5~||
Db|--777---7777---77---77---5-777-7777-77-77-5~||
  |				               ||
Eb|-121212-121212-1212-1212-10-----------------||
Bb|--------------------------------------------||
Gb|--------------------------------------------||
Db|--------------------------------------------|| 
Ab|--------------------------------------------||
Db|--------------------------------------------||

		  end \m/


            
            
Suggest correction
Creating personal tab
Creating personal tab
You can edit any tab online and save it as your Personal.

You can edit, replace or remove any tab part or add personal notes – all changes will be seen only by you.

Personal tabs can be accessed anytime from any device, even offline.
Learn more »
Give kudos to tab author, rate the tab!
1 2 3 4 5
comments
print report bad tab
guest
You may want to rate the tab now too:
select rating
Wanna post a correction for this tab? Suggest correction