Oops, an error
Loading. Please wait.

She Keeps Me Warm tab

2,893 views 3 this week
no commentswrite comment
1 2 3 4 5
2 more votes to show rating
add to favorites
×
Save as Personal and add changes to this tab that will be seen only by you. Learn more ›
×
You can save this tab as Personal to edit and correct it or add notes. All changes will be seen only by you. Learn more »
launch autoscroll
font size
0
reset
how to read this tab
guitar tuner
edit
Autoscroll
slow
fast
+/-
esc
set tempo
stop
Author
Tabbers playing skills
advanced +
cont=continued(tuloy-tuloy lang)
~-let ring-
h-hammer on
p-pull off
(((#)))-effects
/-slide
 
Intro
1.
GtrI
|-------------------------------------------------------7~-----|
|----------------------------------------------------8~--------|
|--------------------------------------------------9~----------|
|--------------------------------------------------9~----------|
|--------------------------------------------------------------|
|--------------------------------------------------------------|

GtrII
|--------------------------------------------------------------|
|--------------------------------------------------------------|
|--------------------------------------------------------------|
|-------11/12-------11/12-------11/12---------11/12------11/12-|
|-9--9---------9--9-------9--9---------9--9---------9--9-------|
|--------------------------------------------------------------|
  *  *        *   *       *  *         *  *         *   *
2.
GtrI
|--------------------------------------------------------------|
|----------------------------------------------------7~--------|
|--------------------------------------------------7~----------|
|------------------------------------------------9~------------|
|--------------------------------------------------------------|
|--------------------------------------------------------------|
GtrII
|--------------------------------------------------------------|
|--------------------------------------------------------------|
|--------------------------------------------------------------|
|-------11/12-------11/12-------11/12---------11/12------11/12-|
|-9--9---------9--9-------9--9---------9--9---------9--9-------|
|--------------------------------------------------------------|
  *  *        *   *       *  *         *  *         *   *
3.
GtrI
|--------------------------------------------------------------|
|--------------------------------------------------------------|
|-5~-5-5-5-5-5-5-5-5-5-5-5-5-5--4~-4-4-4-4-4-4-4-4-4-4-4-4-4-4-|
|-5~-5-5-5-5-5-5-5-5-5-5-5-5-5--4~-4-4-4-4-4-4-4-4-4-4-4-4-4-4-|
|-3~-3-3-3-3-3-3-3-3-3-3-3-3-3--2~-2-2-2-2-2-2-2-2-2-2-2-2-2-2-|
|--------------------------------------------------------------|
GtrII
|--------------------------------------------------------------|
|--------------------------------------------------------------|
|-12~~~~~-12/14--12~~~~~-12/14--11~~~~~~-12/14--11~~~~~~-------|
|-x-------x--x---x-------x--x---x--------x--x---x--------------|
|-10~~~~~-10/12--10~~~~~-10/12--9~~~~~~--10/12--9~~~~~---------|
|--------------------------------------------------------------|

Verse-
GtrI
a|-------------------------------------------------------------|
|--------------------------------------------------------------|
|--------------------------------------------------------------|
|-------11/12-------11/12-------11/12---------11/12------11/12-|cont..
|-9--9---------9--9-------9--9---------9--9---------9--9-------|
|--------------------------------------------------------------|
  *  *        *   *       *  *         *  *         *   *
GtrII
|--------------------------------------------------------------|
|--------------------------------------------------------------|
|-5~------------------------4~------------------------------4--|
|-5~------------------------4~------------------------------4--|
|-3~------------------------2~------------------------------2--|
|--------------------------------------------------------------|

|--------------------------------------------------------------|
|--------------------------------------------------------------|
|-7~---5~-----4~---5~----------5-------------4~----------------|
|------------------5~----------5-------------4~----------------|
|------------------3~----------3-------------2~----------------|
|--------------------------------------------------------------|
Pre-
GtrI
|--------------------------------------------------------------|
|--------------------------------------------------------------|
|-1212121212121212121212---------------------------------------|
|--------------------------------------------------------------|
|-1010101010101010101010---------------------------------------|
|--------------------------------------------------------------|
GtrII
|--------------------------------------------------------------|
|--------------------------------------------------------------|
|-444444444444-------------------------------------------------|
|-444444444444-------------------------------------------------|
|-222222222222-------------------------------------------------|
|--------------------------------------------------------------|
  ************
Chorus-
GtrI
|--------------------------------------------------------------|
|--------------------------------------------------------------|
|----------------------------5~-5~-5~-5~-----------------------|
|-5~-5~-5~-5~--2~-2~-2~-2~---5~-5~-5~-5~--7~-7~-7~-7~-7~-------|
|-5~-5~-5~-5~--2~-2~-2~-2~---3~-3~-3~-3---7~-7~-7~-7~-7~-------|
|-5~-5~-5~-5~--2~-2~-2~-2~----------------7~-7~-7~-7~-7~-------|
GtrII
|--------------------------------------------------------------|
|--------------------------------------------------------------|
|----------------7---------------------------7-----------------|
|-------------7-----9~-------------------7------9~-------------|2x
|--------------------------------------------------------------|
|--------------------------------------------------------------|

|--------------------------------------------------------------|
|----11111111-13131313-12121212----11111111-13131313-12121212--|
|-99----------------------------99-----------------------------|
|--------------------------------------------------------------|
|--------------------------------------------------------------|
|--------------------------------------------------------------|
then
GtrII
|--------------------------------------------------------------|
|--------------------------------------------------------------|
|--------------------------------------------------------------|
|-------11/12-------11/12-------11/12---------11/12------11/12-|
|-9--9---------9--9-------9--9---------9--9---------9--9-------|
|--------------------------------------------------------------|
  *  *        *   *       *  *         *  *         *   *

Interlude-
GtrI
|--------------------------------------------|
|--------------------------------------------|
|------------------------4-------------------|
|-22-4/5-55-4/5--00--7p5----7-5-4------------|2x
|-22-----33------00--------------------------|
|-22-------------00--------------------------|
  **     **      ** 
GtrII
|--------------------------------------------|
|--------------------------------------------|
|-9~--/--5~--/---7~--12121212----------------|
|-9~--/--5~--/---7~--12121212----------------|2x
|-7~--/--3~--/---5~--10101010----------------|
|--------------------------------------------|

|--------------------------------------------|
|--------------------------------------------|
|-9~--/--5~--/---7~--12121212----------------|
|-x------x-------x---x-x-x-x-----------------|2x
|-7~--/--3~--/---5~--10101010----------------|
|--------------------------------------------|
Verse-
GtrI2x
|---------------------------------------------------------------------------|
|---------------------------------------------------------------------------|
|--------------------------------------------55-55-5-55-55-5----------------|
|-22-22-2--22-22-2--22-22-2--22-22-2-22-22-2-55-55-5-55-55-5-77-77-7-77-77-7|
|-22-22-2--22-22-2--22-22-2--22-22-2-22-22-2-33-33-3-33-33-3-77-77-7-77-77-7|
|-22-22-2--22-22-2--22-22-2--22-22-2-22-22-2-----------------77-77-7-77-77-7|
GtrII
|---------------------------------------------------------------------------|
|---------------------------------------------------------------------------|
|---------------------------------------55-55-5--55-55-5--------------------|
|-------22-22-2--22-22-2--22-22-2-22-22-2-55-55-5--55-55-5-77-77-7--77-77-7-|
|-------22-22-2--22-22-2--22-22-2-22-22-2-33-33-3--33-33-3-77-77-7--77-77-7-|
|-------22-22-2--22-22-2--22-22-2-22-22-2------------------77-77-7--77-77-7-|

|--------------------------------------------------------------|
|-121212-888----------8-10--121212-888-------------------------|
|------------9999999-------------------99999999----------------|2x
|--------------------------------------------------------------|
|--------------------------------------------------------------|
|--------------------------------------------------------------|

|------------------------------------------------------------------|
|-8-10--121212121212121212121212121213131313-121212----------------|
|---------------------------------------------------121212----14---|
|---------------------------------------------------------1414-----|
|------------------------------------------------------------------|
|------------------------------------------------------------------|
Do Chorus-
Continued-
GtrI-do chorus
GtrII
|-----------------------------------------------------------------------|
|-----------------------------------------------------------------------|
|-----------------------------------------------------------------------|
|-------------7------------------7----------------7----------------7----|
|-7h12--9~--7---9~---7h12--9~--7---9~-7h12--9~--7---9~-7h12--9~--7---9~-|
|-----------------------------------------------------------------------|

|--10-------------------------------------------------------------------|
|------10----13---10----10----------------------------------------------|
|----12---10---10----10----10-------12----------------------------------|
|-----------------------------910-12--10--------------------------------|3x
|-----------------------------------------------------------------------|
|-----------------------------------------------------------------------|

|-----------------------------------------------------------------------|
|-131313-121212---------------------------------------------------------|
|--------------------((12-12-12))~----((14-14-14))~---------------------|
|-----------------------------------------------------------------------|
|-----------------------------------------------------------------------|
|-----------------------------------------------------------------------|

Chorus-
GtrI-do chorus cont...
GtrII
|--------------------------------------------------------------|
|--------------------------------------------------------------|
|--------------------------------------------------------------|cont..
|-------11/12-------11/12-------11/12---------11/12------11/12-|
|-9--9---------9--9-------9--9---------9--9---------9--9-------|
|--------------------------------------------------------------|
  *  *        *   *       *  *         *  *         *   *
|----------------------------------|
|--13131313-121212-----------------|
|-------------------121212----14---|
|-------------------------1414-----|
|----------------------------------|
|----------------------------------|

GtrII
Cont...
|-----------------------------------------------------------------------|
|-----------------------------------------------------------------------|
|-----------------------------------------------------------------------|
|-------------7------------------7----------------7----------------7----|
|-7h12--9~--7---9~---7h12--9~--7---9~-7h12--9~--7---9~-7h12--9~--7---9~-|
|-----------------------------------------------------------------------|

|--------------------------------------------------------------|
|----11111111-13131313-12121212----11111111-13131313-12121212--|
|-99----------------------------99-----------------------------|
|--------------------------------------------------------------|
|--------------------------------------------------------------|
|--------------------------------------------------------------|

Outro-
GtrI
|---------------------------------|
|---------------------------------|
|--------------5~-5~-5~-5~--------|
|-5~-5~-5~-5~--5~-5~-5~-5~--------|cont..
|-5~-5~-5~-5~--3~-3~-3~-3---------|
|-5~-5~-5~-5~---------------------|

GtrII
|-----------------------------------------------------------------------|
|-----------------------------------------------------------------------|
|-----------------------------------------------------------------------|
|-------------7------------------7----------------7----------------7----|
|-7h12--9~--7---9~---7h12--9~--7---9~-7h12--9~--7---9~-7h12--9~--7---9~-|
|-----------------------------------------------------------------------|

|----------------------------------|
|--13131313-121212-----------------|
|-------------------121212----14---|
|-------------------------1414-----|
|----------------------------------|
|----------------------------------|
 
outro2-
|--------------------------------------------|
|--------------------------------------------|
|------------------------4-------------------|
|-22-4/5-55-4/5--00--7p5----7-5-4------------|4x
|-22-----33------00--------------------------|
|-22-------------00--------------------------|

GtrII
|--------------------------------------------|
|--------------------------------------------|
|-9~--/--5~--/---7~--12121212----------------|
|-9~--/--5~--/---7~--12121212----------------|2x
|-7~--/--3~--/---5~--10101010----------------|
|--------------------------------------------|

2.
|--------------------------------------------|
|--------------------------------------------|
|--------------------------------------------|
|-22-4/5-22--4/5-22-4/5----------------------|
|-22-----22------22--------------------------|cont..
|-22-----22------22--------------------------|
  **     **      ** 


|--------------------------------------------------------------|
|-121212-888----------8-10--121212-888-------------------------|
|------------9999999-------------------99999999----------------|2x
|--------------------------------------------------------------|
|--------------------------------------------------------------|
|--------------------------------------------------------------|
Suggest correction
Creating personal tab
Creating personal tab
You can edit any tab online and save it as your Personal.

You can edit, replace or remove any tab part or add personal notes – all changes will be seen only by you.

Personal tabs can be accessed anytime from any device, even offline.
Learn more »
Give kudos to tab author, rate the tab!
1 2 3 4 5
comments
print report bad tab
guest
You may want to rate the tab now too:
select rating
Wanna post a correction for this tab? Suggest correction