Oops, an error
Loading. Please wait.

The Fight Is Over bass

7,909 views 15 this week
4 commentsread comments
1 2 3 4 5
x 4
add to favorites
×
Save as Personal and add changes to this tab that will be seen only by you. Learn more ›
×
You can save this tab as Personal to edit and correct it or add notes. All changes will be seen only by you. Learn more »
launch autoscroll
font size
0
reset
guitar tuner
edit
Autoscroll
slow
fast
+/-
esc
set tempo
stop
The Fight Is Over
Urbandub
Under Southern Lights
2007

Drop D 

Intro:
G------------------------------------------------|
D------------------------------------------------| 3X
A------------------------------------------------|
D------777-5x-3333-------------------------------|

G------------------------------------------------|
D------------------------------------------------|
A------------------------------------------------|
D----------5555x3~~------------------------------|

Verse: When the fighting is over...
G------------------------------------------------|
D------------------------------------------------| 4x
A------------------------------------------------|
D------777-5x-3~~--------------------------------|

Pre Chorus: Gave all this...
G------------------------------------------------|
D------------------------------------------------|
A------------------------------------------------|
D------5555555-777-55-1~~~~----------------------|

Chorus: With words released...
G------------------------------------------------|
D------------------------------------------------|
A------------------------------------------------|
D------33333333/77777777-33x33x33x3333~~---------|

Pre Verse:
G------------------------------------------------|
D------------------------------------------------| 3X
A------------------------------------------------|
D------777-5x-3333~~-----------------------------|

G------------------------------------------------|
D------------------------------------------------|
A------------------------------------------------|
D------5555555-777-5x-333333~~-------------------|

Verse 2: I know you'll meet someone better...
G------------------------------------------------|
D------------------------------------------------| 3X
A------------------------------------------------|
D------777-5555x-33x3333-------------------------|

Pre Chorus: Gave all this...
G------------------------------------------------|
D------------------------------------------------|
A------------------------------------------------|
D-----5555555-777-5x-3333333333333---------------|

Chorus 2: Explain to me
G------------------------------------------------|
D------------------------------------------------|
A--3333333333333333------------------------------|
D-------------------33333333333333333------------|

G------------------------------------------------|
D------------------------------------------------|
A------------------------------------------------|
D--777-5555555-333333333333333-------------------|

Bridge: How did we end this way?
G------------------------------------------------|
D------------------------------------------------|
A----------3333330-------------------------------|
D---7777770--------333333-3333330----------------|

Bridge 2/Pre Solo: I have to say...
G------------------------------------------------|
D------------------------------------------------|
A----------3333330-------------------------------|
D---7777770--------3333--3333--3333--------------|

Solo: (Alipe)
G------------------------------------------------|
D------------------------------------------------| 2X
A----------3333~~~-------------------------------|
D---7777~~---------3333~~3333--------------------|

Chorus 2

Outro 1: Can't save us now
G------------------------------------------------|
D------------------------------------------------|
A--3333333333333330------------------------------|
D-------------------3333333333333330-------------|

G------------------------------------------------|
D------------------------------------------------|
A------------------------------------------------|
D---777777777777770-333333333333333x-------------|

Outro 2: Ohhh.. Ohhh...
G-------------------------------------------------|
D-------------------------------------------------|
A---3~~--3~~--------------------------------------|
D-------------3~~--3~~--7~~--7~~--3~~--3~~--5~~~~-|

END!

Para to sa MTPS at sa TF, lalo na kay Pareng Tommy. -Pineda

            
            
Suggest correction
Creating personal tab
Creating personal tab
You can edit any tab online and save it as your Personal.

You can edit, replace or remove any tab part or add personal notes – all changes will be seen only by you.

Personal tabs can be accessed anytime from any device, even offline.
Learn more »
comments
print report bad tab
4 comments total. Showing first comments.
0 reply
vendettas 30 Jun 02, 2010 10:04 PM

pre mali mga notes mo

0 reply
AkiraMidori 10 Jun 10, 2013 04:32 AM

mali nga ung chords

0 reply
creavkevin0709 10 Jan 24, 2015 06:17 PM

kayo mali... half tune kasi tas Drop D

guest
You may want to rate the tab now too:
select rating
Wanna post a correction for this tab? Suggest correction