Oops, an error
Loading. Please wait.

Una Vida De Lucha Chords

11 views 1 this week
no commentswrite comment
1 2 3 4 5
3 more votes to show rating
add to favorites
launch autoscroll
font size
0
reset
transpose
0
reset
display chords
guitar tuner
Autoscroll
slow
fast
+/-
esc
set tempo
stop
Help us to improve Ultimate-Guitar.com Take our survey!
×
asi empieza la rola:
C#-D-B-F#-A.

C#   D                         B
Quisiera tener a un lado a mis amigos
                     F#                  A
a la izquierda una cerveza y a la derecha tu.
C#   D                        B                            F#
La vida me ha dado golpes muy fuertes que no han logrado arrodillarme
                        A
solo me han hecho mas fuertes.

G           A    D
Y esta es tu vida oooooo
G           A    D
una vida de luchar ooooo
G             A    D
siempre en las calles ooooo
G         A    D
y con tus amigos siempre vas a  privar.

C#-D-B-F#-A.

C#   D                           B
Compañeros en las buenas y en las malas
              F#                  A
elegimos un  camino ser un buen skinhead
C#   D                        B
y espero que nos queden muchos años
                   F#                            A
compartiendo este legado y compartiendo con el s.h.a.r.p

G           A    D
Y esta es tu vida oooooo
G           A    D
una vida de luchar ooooo
G             A    D
siempre en las calles ooooo
G         A    D
y con tus amigos siempre vas a  privar.

solo #1...
-------------------------------------------
-------------------------------------------
-------------------------------------------
-------------------------------------------
---5---7---5-------5------5---5----7----7--
---------9---7----5---3-3--3-3--5-5--5-5---
solo #2...
-------------------------------------------
-------------------------------------------
--7-9-7------7-------7---7---9----9--------
--------11-9---7--5-5--55-7-7--7-7---------
-------------------------------------------
-------------------------------------------

G           A    D
Y esta es tu vida oooooo
G           A    D
una vida de luchar ooooo
G             A    D
siempre en las calles ooooo
G    A        D                    C#  D
y con tus amigos siempre vas a  privar...
Suggest correction
Give kudos to tab author, rate the tab!
1 2 3 4 5
comments
print report bad tab
guest
You may want to rate the tab now too:
select rating
Wanna post a correction for this tab? Suggest correction