Oops, an error
Loading. Please wait.

Gypsy Tab

version 1
version 1

Whole song

Interactive

14,457 views 21 this week
3 commentsread comments
1 2 3 4 5
x 9
add to favorites
×
Save as Personal and add changes to this tab that will be seen only by you. Learn more ›
×
You can save this tab as Personal to edit and correct it or add notes. All changes will be seen only by you. Learn more »
save as personal
new!
launch autoscroll
font size
0
reset
how to read this tab
guitar tuner
Autoscroll
slow
fast
+/-
esc
set tempo
stop
Author
[Intro]
     Q=210
     Cm
    4/4                  6/4
(Gtr 1)
e|---------------------|-------------------------------|
B|o--------------------|-------------------------------|
G|---------------------|-------------------------------|
D|---------(10)---(8)--|--------(12)---(10)--(8)-------|
A|o-(10)-----8-----6---|-(10)----10------8----6---(8)--|
E|----8----------------|---8-----------------------6---|

  4/4                  6/4
e|--------------------|----------------------------------|
B|--------------------|---------------------------------o|
G|--------------------|----------------------------------|
D|--------(10)---(8)--|--------(12)---(10)--(8)----------|
A|-(10)-----8-----6---|-(10)----10------8----6---(8)----o|
E|---8----------------|---8-----------------------6------|

   Cm
  4/4                  6/4
e|--------------------|-------------------------------|
B|--------------------|-------------------------------|
G|--------------------|-------------------------------|
D|--------(10)---(8)--|--------(12)---(10)--(8)-------|
A|-(10)-----8-----6---|-(10)----10------8----6---(8)--|
E|---8----------------|---8-----------------------6---|

  4/4                  6/4
e|--------------------|-------------------------------|
B|--------------------|-------------------------------|
G|--------------------|-------------------------------|
D|--------(10)---(8)--|--------(12)---(10)--(8)-------|
A|-(10)-----8-----6---|-(10)----10------8----6---(8)--|
E|---8----------------|---8-----------------------6---|

     Cm
    4/4                  6/4
e|---------------------|-------------------------------|
B|o--------------------|-------------------------------|
G|---------------------|-------------------------------|
D|---------(10)---(8)--|--------(12)---(10)--(8)-------|
A|o-(10)-----8-----6---|-(10)----10------8----6---(8)--|
E|----8----------------|---8-----------------------6---|

(Gtr 2)
e|---------------------|-------------------------------|
B|o--------------------|-------------------------------|
G|----------10-----8---|---------12-----10----8--------|
D|---10----------------|--10-----------------------8---|
A|o--------------------|-------------------------------|
E|---------------------|-------------------------------|

  4/4                  6/4
e|--------------------|----------------------------------|
B|--------------------|---------------------------------o|
G|--------------------|----------------------------------|
D|--------(10)---(8)--|--------(12)---(10)--(8)----------|
A|-(10)-----8-----6---|-(10)----10------8----6---(8)----o|
E|---8----------------|---8-----------------------6------|

e|--------------------|----------------------------------|
B|--------------------|---------------------------------o|
G|---------10-----8---|---------12-----10----8-----------|
D|--10----------------|--10-----------------------8------|
A|--------------------|---------------------------------o|
E|--------------------|----------------------------------|

    3/4         5/4                    4/4
                                                               (4x)
e|------------|----------------------|------------------------|
B|o-----------|----------------------|-----------------------o|
G|------------|----------------------|------------------------|
D|------------|-(10)--(8)------------|-(12)--(10)--(8)--------|
A|o-(10)------|---8----6---(10)------|--10-----8----6---(8)--o|
E|----8-------|--------------8-------|-------------------6----|
                                                              (4x)
e|------------|----------------------|------------------------|
B|o-----------|----------------------|-----------------------o|
G|------------|--10----8-------------|--12----10----8---------|
D|---10-------|-------------10-------|-------------------8----|
A|o-----------|----------------------|-----------------------o|
E|------------|----------------------|------------------------|

     C5                            Eb5
    5/4                           7/4
e|------------------------------|---------------------------------|
B|o-----------------------------|---------------------------------|
G|------------------------------|---------------------------------|
D|------------------------------|--8------------------------------|
A|o-10--------------------(10)--|--6------------------------------|
E|---8---------------------(8)--|---------------------------------|

e|------------------------------|---------------------------------|
B|o-----------------------------|---------------------------------|
G|--------------------10----8---|-------------------12--10--8-----|
D|--10-10-10-10-10-10-----------|-10-10-10-10-10-10------------8--|
A|o-----------------------------|---------------------------------|
E|------------------------------|---------------------------------|

   F5                            Ab5
  5/4                           7/4
e|-----------------------------|------------------------------------|
B|-----------------------------|-----------------------------------o|
G|-----------------------------|--8---------------------------------|
D|-10--------------------(10)--|--6---------------------------------|
A|--8---------------------(8)--|-----------------------------------o|
E|-----------------------------|------------------------------------|

e|-----------------------------|------------------------------------|
B|-----------------------------|-----------------------------------o|
G|-------------------10----8---|-------------------12--10--8--------|
D|-10-10-10-10-10-10-----------|-10-10-10-10-10-10------------8-----|
A|-----------------------------|-----------------------------------o|
E|-----------------------------|------------------------------------|

     Cm
    5/4
e|-------------------------------------------|
B|o------------------------------------------|
G|-------------------------------------------|
D|--------------------------------(10)--(8)--|
A|o-(10)-(10)-(10)-(10)-(10)-(10)---8----6---|
E|----8----8----8----8----8----8-------------|

e|-------------------------------------------|
B|o------------------------------------------|
G|---------------------------------10----8---|
D|---10---10---10---10---10---10-------------|
A|o------------------------------------------|
E|-------------------------------------------|

7/4
                                                        (4x)
e|------------------------------------------------------|
B|-----------------------------------------------------o|
G|------------------------------------------------------|
D|-------------------------------(12)--(10)--(8)--------|
A|-(10)-(10)-(10)-(10)-(10)-(10)--10-----8----6---(8)--o|
E|---8----8----8----8----8----8--------------------6----|

                                                       (4x)
e|------------------------------------------------------|
B|-----------------------------------------------------o|
G|--------------------------------12----10----8---------|
D|--10---10---10---10---10---10--------------------8----|
A|-----------------------------------------------------o|
E|------------------------------------------------------|

[Pre-Verse]
   Q=81
   C5             Eb5 C5             Eb5
  4/4
(Gtr 2)
e|------------------|------------------|
B|------------------|------------------|
G|------------------|------------------|
D|-5--5--5--5-(5)s8-|-5--5--5--5-(5)s8-|
A|-3--3--3--3-(3)s6-|-3--3--3--3-(3)s6-|
E|------------------|------------------|

     C5             Eb5 C5             Eb5
e|-------------------|-------------------|
B|o------------------|------------------o|
G|-------------------|-------------------|
D|--5--5--5--5-(5)s8-|-5--5--5--5-(5)s8--|
A|o-3--3--3--3-(3)s6-|-3--3--3--3-(3)s6-o|
E|-------------------|-------------------|

[Verse]
     Cm                           Ab5G5 Ab5G5
e|---------------|-------------|-------------|
B|o--------------|-------------|-------------|
G|---------------|-------------|-------------|
D|---------------|-------------|-------------|
A|o-3\-----------|-------------|-6--5--6--5--|
E|---------------|-------------|-4--3--4--3--|

(Gtr 1)
e|---------------|-------------|-------------|
B|o--------------|-------------|-4--3--4--3--|
G|--5---5--5--5--|-5--5--5--5--|-------------|
D|---------------|-------------|-6--5--6--5--|
A|o-3---3--3--3--|-3--3--3--3--|-------------|
E|---------------|-------------|-4--3--4--3--|

   C5             Eb5 C5             Eb5
e|------------------|--------------------|
B|------------------|--------------------|
G|------------------|--------------------|
D|-5--5--5--5-(5)s8-|-5--5--5--5-(5)s8---|
A|-3--3--3--3-(3)s6-|-3--3--3--3-(3)s6---|
E|------------------|--------------------|
|
e|-3--3--3--3--6----|-3--3--3--3--6------|
B|------------------|--------------------|
G|-5--5--5--5--8----|-5--5--5--5--8------|
D|------------------|--------------------|
A|-3--3--3--3--6----|-3--3--3--3--6------|
E|------------------|--------------------|

   Cm                           Ab5G5       Db5C5
e|--------------|-------------|-----------|-----------|
B|--------------|-------------|-----------|-----------|
G|--------------|-------------|-----------|-----------|
D|--------------|-------------|-----------|-6--5------|
A|-3\-----------|-------------|-6--5------|-4--3------|
E|--------------|-------------|-4--3------|-----------|

e|--------------|-------------|-----------|-4--3------|
B|--------------|-------------|-4--3------|-----------|
G|-5---5--5--5--|-5--5--5--5--|-----------|-6--5------|
D|--------------|-------------|-6--5------|-----------|
A|-3---3--3--3--|-3--3--3--3--|-----------|-4--3------|
E|--------------|-------------|-4--3------|-----------|

                      1.
   Cm                  C5             Eb5 C5             Eb5
e|---------------9---|------------------|-------------------|
B|----------9--------|------------------|------------------o|
G|------8------------|------------------|-------------------|
D|-10----------------|-5--5--5--5-(5)s8-|-5--5--5--5-(5)s8--|
A|-------------------|-3--3--3--3-(3)s6-|-3--3--3--3-(3)s6-o|
E|-------------------|------------------|-------------------|

e|-------------------|------------------|-------------------|
B|-(4)--4--(4)--(4)--|------------------|------------------o|
G|--5---5---5----5---|-5--5--5--5--8----|-5--5--5--5--8-----|
D|-------------------|------------------|-------------------|
A|--3---3---3----3---|-3--3--3--3--6----|-3--3--3--3--6----o|
E|-------------------|------------------|-------------------|

[Keyboard Solo]
     2.
     C5             Eb5 C5             Eb5
e|-------------------|------------------|
B|o------------------|------------------|
G|-------------------|------------------|
D|--5--5--5--5-(5)s8-|-5--5--5--5-(5)s8-|
A|o-3--3--3--3-(3)s6-|-3--3--3--3-(3)s6-|
E|-------------------|------------------|

   C5             Eb5 C5             Eb5
                                       (10x)
e|------------------|-------------------|
B|------------------|------------------o|
G|------------------|-------------------|
D|-5--5--5--5-(5)s8-|-5--5--5--5-(5)s8--|
A|-3--3--3--3-(3)s6-|-3--3--3--3-(3)s6-o|
E|------------------|-------------------|

                                         (Keyboard Effects)
   C5             Eb5 C5             Eb5  C5
e|------------------|------------------|----------|-----|
B|------------------|------------------|----------|-----|
G|------------------|------------------|----------|-----|
D|-5--5--5--5-(5)s8-|-5--5--5--5-(5)s8-|-5--------|-----|
A|-3--3--3--3-(3)s6-|-3--3--3--3-(3)s6-|-3--------|-----|
E|------------------|------------------|----------|-----|

(Guitar Lead)
   C5             Eb5 C5             Eb5
e|------------------|------------------|
B|------------------|------------------|
G|------------------|------------------|
D|-5--5--5--5-(5)s8-|-5--5--5--5-(5)s8-|
A|-3--3--3--3-(3)s6-|-3--3--3--3-(3)s6-|
E|------------------|------------------|

(Gtr 3)
e|------------------|------------------|
B|------------------|------------------|
G|------------------|------------------|
D|------------------|------------------|
A|------------------|------------------|
E|------------------|------------------|

   C5                      Eb5 C5                            Eb5
e|---------------------------|-------------------------------------|
B|---------------------------|-------------------------------------|
G|---------------------------|-------------------------------------|
D|--5----------5--5--5-(5)s8-|---5---------5--5--------5-(5)s8-----|
A|--3----------3--3--3-(3)s6-|---3---------3--3--------3-(3)s6-----|
E|---------------------------|-------------------------------------|

e|---------------------------|-------------------------------------|
B|---------------------------|-------------------------------------|
G|-12b13==(12)r==============|=(12)-10-8-7-8----8-7----------8-8---|
D|---------------------------|----------------------10-8-10--------|
A|---------------------------|-------------------------------------|
E|---------------------------|-------------------------------------|

   C5                       Eb5
e|-----------------------------|
B|-----------------------------|
G|-----------------------------|
D|-5--5---5-----------5-(5)s=8-|
A|-3--3---3-----------3-(3)s=6-|
E|-----------------------------|

e|-----------11-10-8-10--8-----|
B|--------------------------11-|
G|-8-----(8)-------------------|
D|-----------------------------|
A|-----------------------------|
E|-----------------------------|

[Verse]
   C5                                Eb5      Cm
(Gtr 1)
e|-----------------------------------------|---------------|--------------|
B|-----------------------------------------|---------------|--------------|
G|-----------------------------------------|--5---5--5--5--|-5--5--5--5---|
D|--5-----------5--5-----------5-(5)s=8----|---------------|--------------|
A|--3-----------3--3-----------3-(3)s=6----|--3---3--3--3--|-3--3--3--3---|
E|-----------------------------------------|---------------|--------------|

e|-13b15==(13)r------13-11-10-11-10--------|---------------|--------------|
B|-----------------------------------13-11-|-13\-----------|--------------|
G|-----------------------------------------|---------------|--------------|
D|-----------------------------------------|---------------|--------------|
A|-----------------------------------------|---------------|--------------|
E|-----------------------------------------|---------------|--------------|

   Ab5G5 Ab5G5   C5             Eb5 C5             Eb5 Cm
e|-------------|-3--3--3--3--6----|-3--3--3--3--6----|---------------|
B|-4--3--4--3--|------------------|------------------|---------------|
G|-------------|-5--5--5--5--8----|-5--5--5--5--8----|-5---5--5--5---|
D|-6--5--6--5--|------------------|------------------|---------------|
A|-------------|-3--3--3--3--6----|-3--3--3--3--6----|-3---3--3--3---|
E|-4--3--4--3--|------------------|------------------|---------------|
|
e|-------------|------------------|------------------|---------------|
B|-------------|------------------|------------------|---------------|
G|-------------|------------------|------------------|---------------|
D|-------------|-5--5--5--5-(5)s8-|-5--5--5--5-(5)s8-|---------------|
A|-6--5--6--5--|-3--3--3--3-(3)s6-|-3--3--3--3-(3)s6-|-3\------------|
E|-4--3--4--3--|------------------|------------------|---------------|

                 Ab5G5       Db5C5
e|-------------|-----------|-4--3------|--------------------|
B|-------------|-4--3------|-----------|-(4)--4--(4)--(4)---|
G|-5--5--5--5--|-----------|-6--5------|--5---5---5----5----|
D|-------------|-6--5------|-----------|--------------------|
A|-3--3--3--3--|-----------|-4--3------|--3---3---3----3----|
E|-------------|-4--3------|-----------|--------------------|
|
e|-------------|-----------|-----------|---------------9----|
B|-------------|-----------|-----------|----------9---------|
G|-------------|-----------|-----------|------8-------------|
D|-------------|-----------|-6--5------|-10-----------------|
A|-------------|-6--5------|-4--3------|--------------------|
E|-------------|-4--3------|-----------|--------------------|

     C5             Eb5 C5             Eb5 C5
(Gtr 2)
e|-------------------|------------------|--------|
B|o------------------|------------------|-------o|
G|-------------------|------------------|--------|
D|--5--5--5--5-(5)s8-|-5--5--5--5-(5)s8-|-5------|
A|o-3--3--3--3-(3)s6-|-3--3--3--3-(3)s6-|-3-----o|
E|-------------------|------------------|--------|

[Outro]
   C5                                                C5
e|----------|------------|------------|------------|--------*|
B|----------|------------|------------|------------|--------*|
G|-5--------|-(5)--------|-(5)--------|-(5)--------|-5\-----*|
D|-5--------|-(5)--------|-(5)--------|-(5)--------|-5\-----*|
A|-3--------|-(3)--------|-(3)--------|-(3)--------|-3\-----*|
E|----------|------------|------------|------------|--------*|



************************************

| (n)  Ghost note
| \    Slide down
| b    Bend
| *    Natural harmonic

************************************
Suggest correction
comments
print report bad tab
3 comments total.
0 reply
LifeTaker 10 Mar 08, 2007 12:22 PM

Good Job!!!!!!! I Love This Song!!!!!

0 reply
Janosch-III 10 Mar 20, 2007 08:40 AM

brilliant!

0 reply
Rockincognito 56 Sep 08, 2010 05:40 AM

Very Cool!

guest
You may want to rate the tab now too:
select rating
Wanna post a correction for this tab? Suggest correction