Oops, an error
Loading. Please wait.

Spider Woman bass

version 2
version 2

Whole song

13 views 3 this week
no commentswrite comment
1 2 3 4 5
3 more votes to show rating
add to favorites
×
Save as Personal and add changes to this tab that will be seen only by you. Learn more ›
×
You can save this tab as Personal to edit and correct it or add notes. All changes will be seen only by you. Learn more »
launch autoscroll
font size
0
reset
guitar tuner
edit
Autoscroll
slow
fast
+/-
esc
set tempo
stop
Artist: Uriah Heep
Song: Spider Woman
Album: Magician Birthday
Tempo = 120
Electric Bass

G|----------------------------------------------------|
D|----------------------------------------------------|
A|--7--------7--------------7--------7----------------|
E|--------------0-----------------------0-------------|

G|----------------------------------------------------|
D|----------------------------------------------------|
A|--7--------7--5-------------------------------------|
E|-----------------------5--------------5--5----------|

G|----------------------------------------------------|
D|----------------------------------------------------|
A|--7--------7--------------7--------7----------------|
E|--------------0-----------------------0-------------|

G|----------------------------------------------------|
D|----------------------------------------------------|
A|--7--------7--5-------------------------------------|
E|-----------------------5--------------5--5----------|

G|----------------------------------------------------|
D|----------------------------------------------------|
A|--7--------7--------------7--------7----------------|
E|--------------0-----------------------0-------------|

G|----------------------------------------------------|
D|----------------------------------------------------|
A|--7--------7--5-------------------------------------|
E|-----------------------5--------------5--5----------|

G|----------------------------------------------------|
D|----------------------------------------------------|
A|--7--------7--------------7--------7----------------|
E|--------------0-----------------------0-------------|

G|----------------------------------------------------|
D|----------------------------------------------------|
A|--7--------7--5-------------------------------------|
E|-----------------------5--------------5--5----------|

G|----------------------------------------------------|
D|----------------------------------------------------|
A|--7--------7--7--------7--7--------7--7--------7----|
E|----------------------------------------------------|

G|----------------------------------------------------|
D|----------------------------------------------------|
A|--7--------7--7--------7--7--------7--6--------6----|
E|----------------------------------------------------|

G|----------------------------------------------------|
D|--------------4--------4--5--------5--6--------6----|
A|--5--------5----------------------------------------|
E|----------------------------------------------------|

G|----------------------------------------------------|
D|--7--------7----------------------------------------|
A|--------------------------3--------3--4--------4----|
E|--------------5--------5----------------------------|

G|----------------------------------------------------|
D|--------------------------4--------4--6--------6----|
A|--5--------5--7--------7----------------------------|
E|----------------------------------------------------|

G|--------------11-------11-10-------10-9--------9----|
D|--7--------7----------------------------------------|
A|----------------------------------------------------|
E|----------------------------------------------------|

G|----------------------------------------------------|
D|----------------------------------------------------|
A|--7--------7--------------7--------7----------------|
E|--------------0-----------------------0-------------|

G|------------------------------------------------------|
D|------------------------------------------------------|
A|--7--------7--5---------------------------------------|
E|-----------------------5-------------5--5-------------|

G|----------------------------------------------------|
D|----------------------------------------------------|
A|--7--------7--------------7--------7----------------|
E|--------------0-----------------------0-------------|

G|----------------------------------------------------|
D|----------------------------------------------------|
A|--7--------7--5-------------------------------------|
E|-----------------------5--------------5--5----------|

G|----------------------------------------------------|
D|----------------------------------------------------|
A|--7--------7--7--------7--7--------7--7--------7----|
E|----------------------------------------------------|

G|----------------------------------------------------|
D|----------------------------------------------------|
A|--7--------7--7--------7--7--------7--6--------6----|
E|----------------------------------------------------|

G|----------------------------------------------------|
D|--------------4--------4--5--------5--6--------6----|
A|--5--------5----------------------------------------|
E|----------------------------------------------------|

G|----------------------------------------------------|
D|--7--------7--7--------7--7--------7--7--7--5-------|
A|-----------------------------------------------7----|
E|----------------------------------------------------|

G|----------------------------------------------------|
D|----------------------------------------------------|
A|--5--------5----------------------------------------|
E|--------------2--------2--3--------3--4--------4----|

G|----------------------------------------------------|
D|----------------------------------------------------|
A|--------------4--------4--5--------5--6--------6----|
E|--5--------5----------------------------------------|

G|----------------------------------------------------|
D|----------------------------------------------------|
A|--7--------7--------------7--------7----------------|
E|--------------0-----------------------0-------------|

G|----------------------------------------------------|
D|----------------------------------------------------|
A|--7--------7--5-------------------------------------|
E|-----------------------5--------------5--5----------|

G|----------------------------------------------------|
D|----------------------------------------------------|
A|--7--------7--------------7--------7----------------|
E|--------------0-----------------------0-------------|

G|----------------------------------------------------|
D|----------------------------------------------------|
A|--7--------7--5-------------------------------------|
E|-----------------------5--------------5--5----------|

G|----------------------------|
D|----------------------------|
A|-----------------------5----|
E|--0-----3-----5-------------|

G|----------------------------------------------------|
D|----------------------------------------------------|
A|--------5-----------5-------------------------------|
E|-----------------------5--------5--3L----------3----|

G|----------------------------|
D|----------------------------|
A|-----------------------5----|
E|--0-----3-----5-------------|

G|----------------------------------------------------|
D|----------------------------------------------------|
A|--------5-------------------------------------------|
E|--------------5L----------------------5-------------|

G|----------------------------|
D|----------------------------|
A|-----------------------5----|
E|--0-----3-----5-------------|

G|-------------------------------------------------------|
D|-------------------------------------------------------|
A|--------5-----------5----------------------------------|
E|-----------------------5--------5—3-----------3--------|

G|----------------------------|
D|----------------------------|
A|-----------------------5----|
E|--0-----3-----5-------------|

G|----------------------------------------------------|-------|-------|-------|
D|----------------------------------------------------|-------|-------|-------|
A|--------5-------------------------------------------|-------|-------|-------|
E|--------------5-----------------------5-------------|--4----|--3----|--2----|

G|----------------------------------------------------|
D|----------------------------------------------------|
A|----------------------------------------------------|
E|--1--------1--1--------1--1--------1--1--------1----|

G|----------------------------------------------------|
D|----------------------------------------------------|
A|----------------------------------------------------|
E|--0--------0--0--------0--0--------0--0--------0----|

G|----------------------------------------------------|
D|----------------------------------------------------|
A|----------------------------------------------------|
E|--1--------1--1--------1--1--------1--1--------1----|

G|----------------------------------------------------|
D|----------------------------------------------------|
A|----------------------------------------------------|
E|--0--------0--0--------0--0--------0--0--------0----|

G|----------------------------------------------------|
D|----------------------------------------------------|
A|----------------------------------------------------|
E|--1--------1--0--------0--1--------1--2--------2----|

G|----------------------------------------------------|
D|----------------------------------------------------|
A|----------------------------------------------------|
E|--3--------3--2--------2--3--------3--4--------4----|

G|----------------------------------------------------|
D|--------------------------5--------5--7--------7----|
A|--------------7--------7----------------------------|
E|--5--------5----------------------------------------|

G|--------------14-------14-13-------13-12-------12---|
D|----------------------------------------------------|
A|----------------------------------------------------|
E|--5--------5----------------------------------------|

G|----------------------------------------------------|
D|----------------------------------------------------|
A|----------------------------------------------------|
E|--1--------1--1--------1--1--------1--1--------1----|

G|----------------------------------------------------|
D|----------------------------------------------------|
A|----------------------------------------------------|
E|--0--------0--0--------0--0--------0--0--------0----|

G|----------------------------------------------------|
D|----------------------------------------------------|
A|----------------------------------------------------|
E|--1--------1--1--------1--1--------1--1--------1----|

G|----------------------------------------------------|
D|----------------------------------------------------|
A|----------------------------------------------------|
E|--0--------0--0--------0--0--------0--0--------0----|

G|----------------------------------------------------|
D|----------------------------------------------------|
A|----------------------------------------------------|
E|--1--------1--0--------0--1--------1--2--------2----|

G|----------------------------------------------------|
D|----------------------------------------------------|
A|--------------2--------2--3--------3--5--------5----|
E|--3--------3----------------------------------------|

G|----------------------------------------------------|
D|----------------------------------------------------|
A|--7--------7--------------7--------7----------------|
E|--------------0-----------------------0-------------|

G|----------------------------------------------------|
D|----------------------------------------------------|
A|--7--------7--5-------------------------------------|
E|-----------------------5--------------5--5----------|

G|----------------------------------------------------|
D|----------------------------------------------------|
A|--7--------7--------------7--------7----------------|
E|--------------0-----------------------0-------------|

G|----------------------------------------------------|
D|----------------------------------------------------|
A|--7--------7--5-------------------------------------|
E|-----------------------5--------------5--5----------|

G|----------------------------------------------------|
D|----------------------------------------------------|
A|--7--------7--7--------7--7--------7--7--------7----|
E|----------------------------------------------------|

G|----------------------------------------------------|
D|----------------------------------------------------|
A|--7--------7--7--------7--7--------7--6--------6----|
E|----------------------------------------------------|

G|----------------------------------------------------|
D|--------------4--------4--5--------5--6--------6----|
A|--5--------5----------------------------------------|
E|----------------------------------------------------|

G|--------------------------------------------------------------------------------|
D|--7-----------5-----------------------------------------------------------------|
A|--------------------------7-----------------------------------------------3-----|
E|--------------------------------------5--------------------------5--------------|

G|--------------------------------------------------------------------|
D|--------------------------------------------------------------------|
A|---------------------3--------4--------------------------4----------|
E|--------------------------------------------------------------------|

G|--------------------------------------------------------------------------------|
D|--------------------------------------------------------------------------------|
A|--5-----------3-----------------------------------------------------------------|
E|--------------------------5-----------2--------------------------2--------3-----|

G|--------------------------------------------------------------------|
D|--------------------------------------------------------------------|
A|--------------------------------------------------------------------|
E|---------------------3--------4--------------------------4----------|

G|----------------------------------------------------|
D|----------------------------------------------------|
A|--------------4--------4--5--------5--6--------6----|
E|--5--------5----------------------------------------|

G|----------------------------------------------------|
D|----------------------------------------------------|
A|--7--------7--------------7--------7----------------|
E|--------------0-----------------------0-------------|

G|------------------------------------------------------|
D|------------------------------------------------------|
A|--7--------7--5---------------------------------------|
E|-----------------------5-------------5--5-------------|

G|----------------------------------------------------|
D|----------------------------------------------------|
A|--7--------7--------------7--------7----------------|
E|--------------0-----------------------0-------------|

G|----------------------------------------------------|
D|----------------------------------------------------|
A|--7--------7--5-------------------------------------|
E|-----------------------5--------------5--5----------|

G|----------------------------|
D|----------------------------|
A|-----------------------5----|
E|--0-----3-----5-------------|

G|----------------------------------------------------|
D|----------------------------------------------------|
A|--------5-----------5-------------------------------|
E|-----------------------5--------5--------------3----|

G|----------------------------|
D|----------------------------|
A|-----------------------5----|
E|--0-----3-----5-------------|

G|----------------------------------------------------|
D|----------------------------------------------------|
A|--------5-------------------------------------------|
E|--------------5-----------------------5-------------|

G|----------------------------|
D|----------------------------|
A|-----------------------5----|
E|--0-----3-----5-------------|

G|-------------------------------------------------------|
D|-------------------------------------------------------|
A|--------5-----------5----------------------------------|
E|-----------------------5--------5—3-----------3--------|

G|----------------------------|
D|----------------------------|
A|-----------------------5----|
E|--0-----3-----5-------------|

G|----------------------------------------------------|
D|----------------------------------------------------|
A|--------5-------------------------------------------|
E|--------------5-----------------------5-------------|


************************************

| L - tied note

************************************

            
            
Suggest correction
Creating personal tab
Creating personal tab
You can edit any tab online and save it as your Personal.

You can edit, replace or remove any tab part or add personal notes – all changes will be seen only by you.

Personal tabs can be accessed anytime from any device, even offline.
Learn more »
Give kudos to tab author, rate the tab!
1 2 3 4 5
comments
print report bad tab
guest
You may want to rate the tab now too:
select rating
Wanna post a correction for this tab? Suggest correction