Oops, an error
Loading. Please wait.

The Hanging Tree bass

97 views 1 this week
1 commentread comment
1 2 3 4 5
1 last vote to show rating
add to favorites
×
Save as Personal and add changes to this tab that will be seen only by you. Learn more ›
×
You can save this tab as Personal to edit and correct it or add notes. All changes will be seen only by you. Learn more »
launch autoscroll
font size
0
reset
guitar tuner
backing track
0:00
0:00
edit
Autoscroll
slow
fast
+/-
esc
set tempo
stop
The Hanging Tree
by Uriah Heep

NOTE: The Pre-Verse, Verse, and Interlude are all played with a shuffle feel.
Notes in parenthesis are sustained from the previous note,


[Synth Intro]

(8 Bars No Bass)


[Pre-Verse]

G|------------------|-------------------|
D|--2-2-2-2-2-------|-------------------|
A|------------0-2-3-|-(3)-3-3-3-3-3-2-0-|
E|------------------|-------------------|
                                            (repeat as needed)
G|-------------------|----------------------|
D|-------------------|-------------0-0-0----|
A|-(0)-0-0-0-0-0-2-3-|-(3)-3-3-(3)----------|
E|-------------------|----------------------|


[Verse]
                                                                            
G|------------------|-----------------|-----------------|-------------------|
D|--2-2-2-2-2-2-2-2-|-----------------|-----------------|-------------------|   3x
A|------------------|-3-3-3-3-3-3-3-3-|-0-0-0-0-0-0-0-0-|-3-3-3-3-3-3-3-3---|
E|------------------|-----------------|-----------------|-------------------|

G|-----------------|-----------------|-----------------|-----------------|
D|-2-2-2-2-2-2-2-2-|-----------------|-----------------|---------0-0-0-0-|
A|-----------------|-3-3-3-3-3-3-3-3-|-0-0-0-0-0-0-0-0-|-3-3-3-3---------|
E|-----------------|-----------------|-----------------|-----------------|


[Chorus]

(Half-Time)

G|-----------------------|--------------|
D|-2--(2)-4-5-0--(0)-2-4-|----5--0--4-0-|
A|-----------------------|-3------------|
E|-----------------------|--------------|

G|-----------------------|----------------|
D|-2--(2)-4-5-0--(0)-2-4-|----5--0--0-4-0-|
A|-----------------------|-3--------------|
E|-----------------------|----------------|

G|-----------------------|--------------|
D|-2--(2)-4-5-0--(0)-2-4-|----5--0--4-0-|
A|-----------------------|-3------------|
E|-----------------------|--------------|


[Pre-Verse]

G|------------------|-------------------|
D|--2-2-2-2-2-------|-------------------|
A|------------0-2-3-|-(3)-3-3-3-3-3-2-0-|
E|------------------|-------------------|
                                            (repeat as needed)
G|-------------------|----------------------|
D|-------------------|-------------0-0-0----|
A|-(0)-0-0-0-0-0-2-3-|-(3)-3-3-(3)----------|
E|-------------------|----------------------|


[Verse]
                                                                            
G|------------------|-----------------|-----------------|-------------------|
D|--2-2-2-2-2-2-2-2-|-----------------|-----------------|-------------------|   3x
A|------------------|-3-3-3-3-3-3-3-3-|-0-0-0-0-0-0-0-0-|-3-3-3-3-3-3-3-3---|
E|------------------|-----------------|-----------------|-------------------|

G|-----------------|-----------------|-----------------|-----------------|
D|-2-2-2-2-2-2-2-2-|-----------------|-----------------|---------0-0-0-0-|
A|-----------------|-3-3-3-3-3-3-3-3-|-0-0-0-0-0-0-0-0-|-3-3-3-3---------|
E|-----------------|-----------------|-----------------|-----------------|


[Interlude]
                                                                            
G|------------------|-----------------|-----------------|-------------------|
D|--2-2-2-2-2-2-2-2-|-----------------|-----------------|---------0-0-0-0---| 4x
A|------------------|-3-3-3-3-3-3-3-3-|-0-0-0-0-0-0-0-0-|-3-3-3-3-----------|
E|------------------|-----------------|-----------------|-------------------|


[Out-Chorus]

(Half-Time)

G||------------------------|--------------|
D||--2--(2)-4-5-0--(0)-2-4-|----5--0--4-0-|
A||------------------------|-3------------|
E||------------------------|--------------|   
                                     
G|-----------------------|-----------------||
D|-2--(2)-4-5-0--(0)-2-4-|----5--0--0-4-0--|| x4 (fade  out)
A|-----------------------|-3---------------||
E|-----------------------|-----------------||

G|------|
D|-2----|
A|------|
E|------|



**********************
|(n)    Tied note
**********************
Suggest correction
Creating personal tab
Creating personal tab
You can edit any tab online and save it as your Personal.

You can edit, replace or remove any tab part or add personal notes – all changes will be seen only by you.

Personal tabs can be accessed anytime from any device, even offline.
Learn more »
Give kudos to tab author, rate the tab!
1 2 3 4 5
comments
print report bad tab
1 comment total.
0 reply
SlimSlim 10 Apr 08, 2017 12:50 PM

Spot on, as far as I can tell. Sounds great!

guest
You may want to rate the tab now too:
select rating
Wanna post a correction for this tab? Suggest correction