Oops, an error
Loading. Please wait.

Goodbye Forever tab

130 views 3 this week
no commentswrite comment
1 2 3 4 5
3 more votes to show rating
add to favorites
×
Save as Personal and add changes to this tab that will be seen only by you. Learn more ›
×
You can save this tab as Personal to edit and correct it or add notes. All changes will be seen only by you. Learn more »
launch autoscroll
font size
0
reset
how to read this tab
guitar tuner
edit
Autoscroll
slow
fast
+/-
esc
set tempo
stop
Author
Difficulty
[Intro]
    D              A  D           D              A  D(sus4) D
E|--------------------------x--|-----------------------------|
B|-----7--7--7--7--5-----7--x--|-----7--7--7--7--5-----8--7--|
G|-----7--7--7--7--6-----7--x--|-----7--7--7--7--6-----7--7--|
D|-----7--7--7--7--7-----7--x--|-----7--7--7--7--7-----7--7--|
A|--5-----------------5--5--x--|--5-----------------5--5-----|
E|--------------------------x--|-----------------------------|

[Verse 1]
(D just on the down beats)                               
Don't let your guard down if he comes and knocks your door down                              
                               D(sus4)
e|-----------------------------------------------------------------|
B|-----------------------------8p7---------------------------------|
G|-----------------------------7-----------------------------------|
D|-----------------------------7-----------------------------------|
A|-----------------------------5-----------------------------------|
E|-----------------------------------------------------------------|

Tell him, "I'm not that kinda girl, I'm not that kinda girl"
    D              A  D           D              A  D(sus4) D
E|--------------------------x--|-----------------------------|
B|-----7--7--7--7--5-----7--x--|-----7--7--7--7--5-----8--7--|
G|-----7--7--7--7--6-----7--x--|-----7--7--7--7--6-----7--7--|
D|-----7--7--7--7--7-----7--x--|-----7--7--7--7--7-----7--7--|
A|--5-----------------5--5--x--|--5-----------------5--5-----|
E|--------------------------x--|-----------------------------|

 Fool me once, hell no,         Fool me twice, goota let you go
                         
    Bm7            A/B Bm7     A
E|--------------------------|------------------|
B|-----7--7--7--7--5-----7--|------------------|
G|-----7--7--7--7--6-----7--|--6--6--6--6---6--|
D|-----7--7--7--7--7-----7--|--7--7--7--7---7--|
A|--------------------------|--7--7--7--7---7--|
E|--7-----------------7--7--|--5--5--5--5---5--| 
  (Use thumb for bass note)                          
                              Gotta let you go

[Chorus] 
(There's a lot going on here, but the chords should be essentially right.
 You should be able to hear where the accents go to give it a kind of funk feel)

    D                                                      G
e|------10-10--10-10-------10-10--10-10-----10-10--10-10-------10--|
B|------10-10--10-10-------10-10--10-10-----10-10--10-10-------12--|
G|------11-11--11-11-------11-11--11-11-----11-11--11-11-------12--|
D|------12-12--12-12-------12-12--12-12-----12-12--12-12-------12--|
A|------12-12--12-12-------12-12--12-12-----12-12--12-12-------10--|
E|--10-----------------10----------------10---------------10-------|

It's just so hard to say goodbye when you're so beautiful

    D                                                      G
e|------10-10--10-10-------10-10--10-10-----10-10--10-10-------10--|
B|------10-10--10-10-------10-10--10-10-----10-10--10-10-------12--|
G|------11-11--11-11-------11-11--11-11-----11-11--11-11-------12--|
D|------12-12--12-12-------12-12--12-12-----12-12--12-12-------12--|
A|------12-12--12-12-------12-12--12-12-----12-12--12-12-------10--|
E|--10-----------------10----------------10---------------10-------|

I know the way I need to end this tragic musical

    G                                                   A(sus4)
e|------10-10--10-10-----10-10--10-10-----10-10--10-10-----x---|
B|------12-12--12-12-----12-12--12-12-----12-12--12-12-----15--|
G|------12-12--12-12-----12-12--12-12-----12-12--12-12-----14--|
D|------12-12--12-12-----12-12--12-12-----12-12--12-12-----14--|
A|------10-10--10-10-----10-10--10-10-----10-10--10-10-----12--|
E|--10----------------10----------------10--------------12-----|

La la la la la la la la, goodbye

    G                                                    D
e|------10-10--10-10-----10-10--10-10-----10-10--10-10-------10--|
B|------12-12--12-12-----12-12--12-12-----12-12--12-12-------10--|
G|------12-12--12-12-----12-12--12-12-----12-12--12-12-------11--|
D|------12-12--12-12-----12-12--12-12-----12-12--12-12-------12--|
A|------10-10--10-10-----10-10--10-10-----10-10--10-10-------12--|
E|--10----------------10----------------10--------------10-------|

La la la la la la la la, goodbye forever

    D              A  D           D              A  D(sus4) D
E|--------------------------x--|-----------------------------|
B|-----7--7--7--7--5-----7--x--|-----7--7--7--7--5-----8--7--|
G|-----7--7--7--7--6-----7--x--|-----7--7--7--7--6-----7--7--|
D|-----7--7--7--7--7-----7--x--|-----7--7--7--7--7-----7--7--|
A|--5-----------------5--5--x--|--5-----------------5--5-----|
E|--------------------------x--|-----------------------------|

[Verse 2]
(D)                          
Don't entertain him when he makes it complicated 

                               D(sus4)
e|-----------------------------------------------------------------|
B|-----------------------------8p7---------------------------------|
G|-----------------------------7-----------------------------------|
D|-----------------------------7-----------------------------------|
A|-----------------------------5-----------------------------------|
E|-----------------------------------------------------------------|

Tell him, "I'm not that kinda girl, I'm not that kinda girl"

    D              A  D           D              A  D(sus4) D
E|--------------------------x--|-----------------------------|
B|-----7--7--7--7--5-----7--x--|-----7--7--7--7--5-----8--7--|
G|-----7--7--7--7--6-----7--x--|-----7--7--7--7--6-----7--7--|
D|-----7--7--7--7--7-----7--x--|-----7--7--7--7--7-----7--7--|
A|--5-----------------5--5--x--|--5-----------------5--5-----|
E|--------------------------x--|-----------------------------|

 Fool me once, hell no,         Fool me twice, goota let you go
                         
    Bm7            A/B   Bm7   A
E|--------------------------|--------------------------|
B|-----7--7--7--7--5-----7--|--------------------------|
G|-----7--7--7--7--6-----7--|--6-----------------------|
D|-----7--7--7--7--7-----7--|--7--5--4-----------------|
A|--------------------------|--7--------7--5--4--------|
E|--7-----------------7--7--|--5-----------------7--5--| 
  (Use thumb for bass note)                          
                              Gotta let you go

[Chorus]
    D                                                      G
e|------10-10--10-10-------10-10--10-10-----10-10--10-10-------10--|
B|------10-10--10-10-------10-10--10-10-----10-10--10-10-------12--|
G|------11-11--11-11-------11-11--11-11-----11-11--11-11-------12--|
D|------12-12--12-12-------12-12--12-12-----12-12--12-12-------12--|
A|------12-12--12-12-------12-12--12-12-----12-12--12-12-------10--|
E|--10-----------------10----------------10---------------10-------|

It's just so hard to say goodbye when you're so beautiful

    D                                                      G
e|------10-10--10-10-------10-10--10-10-----10-10--10-10-------10--|
B|------10-10--10-10-------10-10--10-10-----10-10--10-10-------12--|
G|------11-11--11-11-------11-11--11-11-----11-11--11-11-------12--|
D|------12-12--12-12-------12-12--12-12-----12-12--12-12-------12--|
A|------12-12--12-12-------12-12--12-12-----12-12--12-12-------10--|
E|--10-----------------10----------------10---------------10-------|

I know the way I need to end this tragic musical

    G                                                   A(sus4)
e|------10-10--10-10-----10-10--10-10-----10-10--10-10-----x---|
B|------12-12--12-12-----12-12--12-12-----12-12--12-12-----15--|
G|------12-12--12-12-----12-12--12-12-----12-12--12-12-----14--|
D|------12-12--12-12-----12-12--12-12-----12-12--12-12-----14--|
A|------10-10--10-10-----10-10--10-10-----10-10--10-10-----12--|
E|--10----------------10----------------10--------------12-----|

La la la la la la la la, goodbye

    G                                                    D
e|------10-10--10-10-----10-10--10-10-----10-10--10-10-----10--|
B|------12-12--12-12-----12-12--12-12-----12-12--12-12-----10--|
G|------12-12--12-12-----12-12--12-12-----12-12--12-12-----11--|
D|------12-12--12-12-----12-12--12-12-----12-12--12-12-----12--|
A|------10-10--10-10-----10-10--10-10-----10-10--10-10-----12--|
E|--10----------------10----------------10--------------10-----|

La la la la la la la la, goodbye forever

e|--------------------------|
B|--------------------------|
G|--------------------------|
D|--9b11--8--9--8--9--------|
A|--------------------9b10--|
E|--------------------------|
(Something like this with distortion and reverb)

[Bridge]
    Bm               D    Bm
e|---------------------------|
B|--7----------------7----7--|
G|--7----------------7----7--|
D|--9----------------7----9--|
A|--9----------------5----9--|
E|---------------------------|

You're cool but I am cooler

                     D    
e|----------------------|
B|-------------------7--|
G|-------------------7--|
D|-------------------7--|
A|-------------------5--|
E|----------------------|

You're pretty but I'm cuter

    Bm               D    Bm
e|---------------------------|
B|--7----------------7----7--|
G|--7----------------7----7--|
D|--9----------------7----9--|
A|--9----------------5----9--|
E|---------------------------|

You're cool but I am cooler

                     D    
e|----------------------|
B|-------------------7--|
G|-------------------7--|
D|-------------------7--|
A|-------------------5--|
E|----------------------|

You're pretty but I'm cuter

     A
e|-----------------|
B|--5--5--5--5--5--|
G|--6--6--6--6--6--|
D|--7--7--7--7--7--|
A|--7--7--7--7--7--|
E|--5--5--5--5--5--|

                 And smarter

[Chorus]
    D                                                      G
e|------10-10--10-10-------10-10--10-10-----10-10--10-10-------10--|
B|------10-10--10-10-------10-10--10-10-----10-10--10-10-------12--|
G|------11-11--11-11-------11-11--11-11-----11-11--11-11-------12--|
D|------12-12--12-12-------12-12--12-12-----12-12--12-12-------12--|
A|------12-12--12-12-------12-12--12-12-----12-12--12-12-------10--|
E|--10-----------------10----------------10---------------10-------|

It's just so hard to say goodbye when you're so beautiful

    D                                                      G
e|------10-10--10-10-------10-10--10-10-----10-10--10-10-------10--|
B|------10-10--10-10-------10-10--10-10-----10-10--10-10-------12--|
G|------11-11--11-11-------11-11--11-11-----11-11--11-11-------12--|
D|------12-12--12-12-------12-12--12-12-----12-12--12-12-------12--|
A|------12-12--12-12-------12-12--12-12-----12-12--12-12-------10--|
E|--10-----------------10----------------10---------------10-------|

I know the way I need to end this tragic musical

    G                                                   A(sus4)
e|------10-10--10-10-----10-10--10-10-----10-10--10-10-----x---|
B|------12-12--12-12-----12-12--12-12-----12-12--12-12-----15--|
G|------12-12--12-12-----12-12--12-12-----12-12--12-12-----14--|
D|------12-12--12-12-----12-12--12-12-----12-12--12-12-----14--|
A|------10-10--10-10-----10-10--10-10-----10-10--10-10-----12--|
E|--10----------------10----------------10--------------12-----|

La la la la la la la la, goodbye

    G                                                    D
e|------10-10--10-10-----10-10--10-10-----10-10--10-10-----10--|
B|------12-12--12-12-----12-12--12-12-----12-12--12-12-----10--|
G|------12-12--12-12-----12-12--12-12-----12-12--12-12-----11--|
D|------12-12--12-12-----12-12--12-12-----12-12--12-12-----12--|
A|------10-10--10-10-----10-10--10-10-----10-10--10-10-----12--|
E|--10----------------10----------------10--------------10-----|

La la la la la la la la, goodbye forever

[Bridge]
(D) 
You're cool but I am cooler
                          
You're pretty but I'm cuter

    D              A     D        D              A  D(sus4) D
E|--------------------------x--|-----------------------------|
B|-----7--7--7--7--5-----7--x--|-----7--7--7--7--5-----8--7--|
G|-----7--7--7--7--6-----7--x--|-----7--7--7--7--6-----7--7--|
D|-----7--7--7--7--7-----7--x--|-----7--7--7--7--7-----7--7--|
A|--5-----------------5--5--x--|--5-----------------5--5-----|
E|--------------------------x--|-----------------------------|

                 D(sus4)
e|---------------------|
B|---------------8p7---|
G|---------------7-----|
D|---------------7-----|
A|---------------5-----|
E|---------------------|

You're cool but I am cooler                        
You're pretty but I'm cuter

    D              A     D        D              A  
E|--------------------------x--|---------------------|
B|-----7--7--7--7--5-----7--x--|-----7--7--7--7--5---|
G|-----7--7--7--7--6-----7--x--|-----7--7--7--7--6---|
D|-----7--7--7--7--7-----7--x--|-----7--7--7--7--7---|
A|--5-----------------5--5--x--|--5------------------|
E|--------------------------x--|---------------------|

                                                    And smarter


************************************

| x  Dead note
| p  Pull-off
| b  Bend

************************************
Suggest correction
Creating personal tab
Creating personal tab
You can edit any tab online and save it as your Personal.

You can edit, replace or remove any tab part or add personal notes – all changes will be seen only by you.

Personal tabs can be accessed anytime from any device, even offline.
Learn more »
Give kudos to tab author, rate the tab!
1 2 3 4 5
comments
print report bad tab
guest
You may want to rate the tab now too:
select rating
Wanna post a correction for this tab? Suggest correction