Oops, an error
Loading. Please wait.

No Vacation From The World album bass

105 views 1 this week
no commentswrite comment
1 2 3 4 5
3 more votes to show rating
add to favorites
×
Save as Personal and add changes to this tab that will be seen only by you. Learn more ›
×
You can save this tab as Personal to edit and correct it or add notes. All changes will be seen only by you. Learn more »
launch autoscroll
font size
0
reset
guitar tuner
edit
Autoscroll
slow
fast
+/-
esc
set tempo
stop
Author
++++++++++++++++++++++++++++++++++++++++++
| Useless ID- No Vacation From The World |
++++++++++++++++++++++++++++++++++++++++++


"No vacation from this fucked up world..."


Bass Tab
Album: "No Vacation From The World" -- 2003


One of the best Punk Rock band in my opinion,
great songs with awesome bass,
thank you Useless ID

I hope you enjoy all these songs tabbed by me
please rate, and thank you!!


RaiLeff

___________________________________________________

Tuning: Standard EADG 


Keys:

| x: Mute
| ~: Let Ring
| /: Slide Up
| \: Slide Down
| h: Hammer On
| p: Pull Off


Track List: 

1. Same Story, Someone New
2. The Worst Holiday I've Ever Had
3. Bring Me Down
4. My Therapy
5. Jukebox 86
6. Too Late To Start Over
7. Unhappy Hour
8. Birthday Song
9. Crush
10. Weird Rock
11. Stuck Without A Ride
12. Diary
13. At Least I Tried
14. End

_______________________________________________________

1.

+++++++++++++++++++++++++++++++++++++++
| Useless ID- Same Story, Someone New |
+++++++++++++++++++++++++++++++++++++++


"Sometimes on Valentine's, I get someone new in mind..."

Tuning: EADG


Intro
1.
G|--------------------------------------------------------------------------------|
D|--------------------------------------------------------------------------------|
A|-000000x------------2222222x------------1111111x----2222222-5555555x------------|
E|------------2222222-------------0000000---------------------------------0000000-|

2.
G|-------------------------------------------------------------------------------|
D|-------------------------------------------------------------------------------|
A|-000000x------------2222222x------------1111111x----2222222-5555555x-----------|
E|------------2222222-------------0000000------------------------------0~-00~-00-|

Verse
"Same story here it goes..."
3.
G|-------------------------------------------------------------------------|
D|-------------------------------------------------------------------------|
A|-00000000-------------------44444444-55555555----------0~-00~--0---------|--x2
E|----------00000000-22222222-------------------00000000-----------0000000-|

Chorus
"Sometimes on Valentine's..."
4.
G|-------------------------------------------------------------|
D|-------------------------------------------------------------|
A|-5-5-5555----------0000---------------5-5-5555---------------|
E|----------0-0-0000------0000-22222020----------0-0-0x--------|

Verse
"Same story here it goes..."
5.
G|-------------------------------------------------------------------------|
D|-------------------------------------------------------------------------|
A|-00000000-------------------44444444-55555555----------0~-00~--0---------|--x2
E|----------00000000-22222222-------------------00000000-----------0000000-|

Chorus
"The past repeats itself..."
6.
G|-------------------------------------------------------------------------------|
D|-------------------------------------------------------------------------------|
A|-5-5-5555----------0000---------------55555555-----------------------0000-4444-|
E|----------0-0-0000------0000-22222020----------0000x--------22222222-----------|

"Somehow with what I've got..."
7.
G|------------------------------------------------------------|
D|------------------------------------------------------------|
A|-5-5-5555----------00x----------------55555555--------------|
E|----------0-0-0000------00x--22222020----------00000x-------|

Bridge
8.
G|-----------------------------------------------------------------------------------|
D|-----------------------------------------------------------------------------------|
A|-5---5~----7---------4---4~--------------5---5~----7---------0000000---------------|
E|---5---------7-0~------4-------2-2-2~------5---------7-0~-----------2-2222x--------|

9.
G|-----------------------------------------------------------|
D|-----------------------------------------------------------|
A|-5---5~----7---------4---4~--------------55555555-77777777-|
E|---5---------7-0~------4-------2-2-2~----------------------|

Outro
"This concludes with my life..."
10.
G|--------------------------------------------------------------------------------|
D|--------------------------------------------------------------------------------|
A|-00000000------4444----555555-8888-7777---0000000------4444----555555-8888-7777-|
E|----------2222------------------------------------2222--------------------------|

"This concludes with my life..."
11.
G|--------------------------------------------------|
D|--------------------------------------------------|
A|--0000000------4x------555555-8888-7777-0~--------|
E|----------2222------------------------------------|


Lyrics:

Same story here it goes, more hard times falling in love.
Even the best doesnt seem to please me.
A guardian angel left my broken heart in hell.
I thought I was over it, but I'm not.

Sometimes on Valentine's, I get someone new in mind.
I think I've fallen for the wrong girl.

That time of year again, when relationships all end.
I find myself with my friends alone again, feeling down on God Knows what?
I don't even care about doing the right thing too many times (when I should).

The past repeats itself.
The future brings me someone else.
I wish it was all different but, for now I'll manage.
Somehow with what I've got, hold to it till it's gone and mabye then I'll find the right one.

This concludes with my life and now I hope you get well soon.
mabye we'll meet again next year.
we'll all be here

____________________________________________________________________

2.

+++++++++++++++++++++++++++++++++++++++++++++++
| Useless ID- The Worst Holiday I've Ever Had |
+++++++++++++++++++++++++++++++++++++++++++++++


"Do you remember when no one was wondering
Why I was sad on this holiday?"


Tuning: EADG


Intro
1.
G|-----------------------------------------------------------------|
D|-----------------------------------------------------------------|
A|---------------------------------3-33-335-55-555-2-22-22---------|--x2
E|-3-33-333-33-333-0-00-000-00-000------------------------0-00-000-|

Verse
"The happiest day of the year..."
2.
G|-----------------------------------------------------------------|
D|-----------------------------------------------------------------|
A|---------------------------------3-33-335-55-555-2-22-22---------|
E|-3-33-333-33-333-0-00-000-00-000------------------------0-00-000-|

"She's waiting there..."
3.
G|-------------------------------------------------------------------|
D|-------------------------------------------------------------------|
A|---------------------------------3-33-335-55-555-2-22-22-77-5555x--|
E|-3-33-333-33-333-0-00-000-00-000-----------------------------------|

Pre-Chorus
"Its down once again..."
4.
G|--------------------------------|
D|--------------------------------|
A|-3-333-33-333x--55-555x---------|
E|--------------------------------|

Chorus
"Will anyone care to end..."
5.
G|-----------------------------------------------------------------|
D|-----------------------------------------------------------------|
A|-------------------------2-22-22-3-33-33-3-33-33x----6x--6x--6x--|
E|-3-33-33-2-22-22-0-00-00-----------------------------------------|

Outro
6.
G|-----------------------------------------------------------------|
D|-----------------------------------------------------------------|
A|---------------------------------3-33-335-55-555-2-22-22---------|--x2
E|-3-33-333-33-333-0-00-000-00-000------------------------0-00-000-|

Verse
"You thought about another chance..."
7.
G|------------------------------------------------------|
D|------------------------------------------------------|
A|---------------------------3~--5-5-5-2~--7-7777-5x----|
E|-3~--3-3-3x---0~--0-0-0x------------------------------|

"Cant stand to see another smile..."
8.
G|---------------------------------------------------------|
D|---------------------------------------------------------|
A|---------------------------3x----5x----6x----77-5555x----|
E|-3~--3-3-3x---0~--0-0-0x---------------------------------|

Pre-Chorus
"Its down once again..."
9.
G|--------------------------------|
D|--------------------------------|
A|-3-333-33-333x--55-555x---------|
E|--------------------------------|

Chorus
"Will anyone care to end..."
10.
G|-----------------------------------------------------------------|
D|-----------------------------------------------------------------|
A|-------------------------2-22-22-3-33-33-3-33-33x----6x--6x------|
E|-3-33-33-2-22-22-0-00-00-----------------------------------------|

"Its so clear..."
11.
G|-------------------------------------------------------------------|
D|-------------------------------------------------------------------|
A|---------5-55-55---------2-22-22-3-33-33-3-33-33-6~----------------|
E|-3-33-33---------0-00-00-------------------------------------------|

Bridge
"Its the worst holiday Ive had..."
12.
G|-------------------------------------------------------------------------|
D|-------------------------------------------------------------------------|
A|-------------------33333333----------------------------33333333----------|
E|-00000000-33333333----------00000000-00000000-33333333----------00000000-|

"Its the worst holiday Ive had..."
13.
G|----------------------------------------|
D|----------------------------------------|
A|-------------------33333333----------7\-|
E|-00000000-33333333----------00000000----|

"When you want to break out..."
14.
G|-------------------------------------------------------------------------|
D|-------------------------------------------------------------------------|
A|-------------------33333333------777-------------------33333333------777-|
E|-00000000-33333333----------00000----00000000-33333333----------00000----|

Outro
"Do you remember when..."
15.
G|-----------------------------------------------------------------------------|
D|-----------------------------------------------------------------------------|
A|-33333333-55555555-22222222----------000000x----222222x----3~----------------|
E|----------------------------00000000-----------------------------------------|

Lyrics:

The happiest day of the year has come around again.
Mabye tonight I'm bound to find my long awaited friend.
She's waiting there. The falling star where wishes don't come true.
It's too bad that I got no plan and wonder what I can possibly do.

It's down once again.
Will anyone care to end the worst holiday I've ever had in years.

You thought about another chance that didn't make it through,
because of what the bad scene has made out of you.
Can't stand to see another smile the next time she's around.
I'll lend her all my feelings for a day. How does it sound?
So cruel.

It's so clear, it's the worst holiday I've ever had.

It's the worst holiday I've ever had.

When you want to break out...
When you want to break out...
Break Out!

Do you remember when? No one was wondering.
Why I was sad on this holiday?

_____________________________________________________________

3.

+++++++++++++++++++++++++++++
| Useless ID- Bring Me Down |
+++++++++++++++++++++++++++++


Tuning: EADG

Intro
1.
G|---------------------------------------|
D|---------------------------------------|
A|-0-0-0-00-0-0-0-555-0-0-0-00-0-0-0-555-|
E|---------------------------------------|

Verse
"Everyone gather round..."
2.
G|---------------------------------------------------------------------------|
D|---------------------------------------------------------------------------|
A|-0-0-0-00/4-4-4-44/5-5-5-55-0-0-0-555-0-0-0-00/4-4-4-44/5-5-5-55/8888-8888-|
E|---------------------------------------------------------------------------|

Pre-Chorus
"Its been a while..." 
3.
G|---------------------------------------------------------------------------|
D|---------------------------------------------------------------------------|
A|-0-0-000------------5-5-555-----------0-0-000------------5-5-555-----------|
E|---------0-000-0000---------2222-0000---------0-000-0000---------2222-0000-|

Chorus
"Once again..."
4.
G|-----------------------------------------------------------------------------|
D|-0-000-0-000-------------0-000-0-000----------------------------0000-0000-2x-|
A|-------------------------------------------------2--------4------------------|
E|-------------0-000-2-222-------------0-000-2-222----0~-------2~--------------|

Outro
5.
G|---------------------------------------|
D|---------------------------------------|
A|-0-0-0-00-0-0-0-555-0-0-0-00-0x--------|
E|---------------------------------------|

Verse
"Remember all..."
6.
G|--------------------------------2-1--------------------------------------|
D|-------------------------------------------------------------------------|
A|-0-0-0-00/4-4-4-44/5-5-5-55-0-0-----0-0-0-00/4-4-4-44/5-5-5-55/8888-8888-|
E|-------------------------------------------------------------------------|

Pre-Chorus
"Im loosing all..."
7.
G|---------------------------------------------------------------------------|
D|---------------------------------------------------------------------------|
A|-0-0-000------------5-5-555-----------0-0-000------------5-5-555-----------|
E|---------0-000-0000---------2222-0000---------0-000-0000---------2222-0000-|

Chorus
"Once again..."
8.
G|-----------------------------------------------------------------------------|
D|-0-000-0-000-------------0-000-0-000----------------------------0000-0000-2x-|
A|-------------------------------------------------2--------4------------------|
E|-------------0-000-2-222-------------0-000-2-222----0~-------2~--------------|

Bridge
9.
G|------------------------------------------------------------------------------|
D|----------------------------------------------------------2222-2222-2222-2222-|
A|-0-0-000--------------------4-444-4444-5-5-555-0-000-0000---------------------|
E|---------0-000-0000-2-2-222---------------------------------------------------|

10.
G|---------------------------------------------------------------------------------|
D|-------------------------------------------------------------2222-2222-2222-2222-|
A|-0-0-000x---------------------4-444-4444-5-5-555x-0-000-0000---------------------|
E|----------0-000-0000-2-2-222x----------------------------------------------------|

Chorus
"Once again..."
11.
G|-----------------------------------------------------------------------------|
D|-0-000-0-000-------------0-000-0-000----------------------------0000-0000-2x-|
A|-------------------------------------------------2--------4------------------|
E|-------------0-000-2-222-------------0-000-2-222----0~-------2~--------------|

Lyrics:

Everyone gather round, the fight's about to begin.
It's me against the whole wide world 
knowing that there's no way I could win.

It's been a while 
since I could come up with anything new 
and make it seem alright.
You know It's never been.

Once again 
I need to run away 
from everyone all around, 
until it stops bringing me down.

Remember all the days we had to figure out what we want?
But, now those days have passed me by.
Why is it so hard to get around?

I'm losing all control over myself 
and I'm down to the floor.
Now, I don't even know who am I talking to anymore.

___________________________________________________________

4.

++++++++++++++++++++++++++
| Useless ID- My Therapy |
++++++++++++++++++++++++++

Tuning: EADG

Intro
1.
G|-------------------------------------------------------------------------|
D|-------------------------------------------------------------------------|
A|-00000000-55555555-00000000-55555555----------44444444-55555555-55555555-|
E|-------------------------------------22222222----------------------------|

2.
G|-------------------------------------------------------------------------|
D|-------------------------------------------------------------------------|
A|-00000000-55555555-00000000-55555555----------44444444-55555555-5~-------|
E|-------------------------------------22222222----------------------------|

Verse
"Lets take a trip down memory lane..."
3.
G|-------------------------------------------------------------------------|
D|-------------------------------------------------------------------------|
A|-000x-----555x-----000x-----555x--------------44444444-55555555-55555555-|--x2
E|---------------------------------00--22222222----------------------------|

Chorus
"Did you know its been so long..."
4.
G|-------------------------------------------------------------------------|
D|-------------------------------------------------------------------------|
A|-00000000-00000000-00000000-0000-----------------------55555555----------|--x2
E|--------------------------------0000-22222222-22222222----------00000000-|

Outro
5.
G|-----------------------------|
D|-----------------------------|
A|-00x----55x----00x----55x----|
E|-----------------------------|

Verse
"I called you from England..."
6.
G|-------------------------------------------------------------------------|
D|-------------------------------------------------------------------------|
A|-0~-------5~-------0~-------5x----------------44444444-55555555-55555555-|
E|---------------------------------00--22222222----------------------------|

7.
G|-------------------------------------------------------------------------|
D|-------------------------------------------------------------------------|
A|-000x-----555x-----000x-----555x--------------44444444-55555555-xxx------|
E|---------------------------------00--22222222----------------------------|

Chorus
"Im sorry again, Its been so long..."
8.
G|-------------------------------------------------------------------------|
D|-------------------------------------------------------------------------|
A|-00000000-00000000-00000000-0000-----------------------55555555----------|--x2
E|--------------------------------0000-22222222-22222222----------00000000-|

Outro
9.
G|------------------------------|
D|------------------------------|
A|-5x---------------------------|
E|------------------------------|

10.
G|-------------------------------------------------------------|
D|-------------------------------------------------------------|
A|-55x----5---------------44x----55x----5---------------44x----|--x2
E|---------00x----22x----2---------------00x----22x----2-------|

Bridge
"Take back what you promised..."
11.
G|-------------------------------------------------------------------|
D|-------------------------------------------------------------------|
A|-55555555-77777777----------44444444-55555555----------------------|
E|-------------------22222222-------------------00000000-22-2-2-2-2x-|

12.
G|-------------------------------------------------------------------------|
D|-------------------------------------------------------------------------|
A|-55555555-77777777-44444444-55555555-55555555-55555555-77777777-77777777-|
E|-------------------------------------------------------------------------|

Outro
13.
G|---------------------------------------------------------------------------------|
D|----------00000000----------00000000-----------00x----000----------00x----000----|
A|---------------------------------------------------------------------------------|
E|-22222222----------22222222----------22x----222----------22x----222----------22x-|

Lyrics:

Let's take a trip down memory lane and pass by all the nights,
were I'll find myself in your arms again.
There's no inspiration here, lets go, I think we better get out
But we're stuck deep in the depths of yesterday.

Did you know it's been too long?
This movie never ends, I need you more than anything now.
So much has changed but we will always be a part of something no one can see.

I called you from England just to hear you say:
"leave a message after the beep"
But it was more than that in your sad voice sound.
The one tape that I left you with, gave a tear to your eye and left me sick with words
I've been keeping in so long, I'm sorry again.

Take back what you promised, it's been raining since you left me.
Don't you worry at all, I'll be back before you know it knocking on your door.

___________________________________________________________________________________________

5.

++++++++++++++++++++++++++
| Useless ID- Jukebox 86 |
++++++++++++++++++++++++++


"Every time I hear them, it takes me back home..."

Tuning: Standard EADG


Intro
1.
G|-------------|
D|-------------|
A|-5~----0~----|
E|-------------|

Verse
"Take me to a place..."
2.
G|--4---4---6---6---2---2---2---2---4---4---6---6---2---2---2---2---|
D|-2--22--24--44--40--00--00--00--02--22--24--44--40--00--00--00--0-|
A|------------------------------------------------------------------|
E|------------------------------------------------------------------|

"Sit outside with all my best friends..."
3.
G|----------------------------------------------------------------|
D|-----------------00-000-000-000-0----------------00-000-000-----|
A|------------------------------------------------------------5-4-|
E|-00-000-022-222-2----------------00-000-022-222-2---------------|

Pre-Chorus
"Come around the block..."
4.
G|-------------------------------------------------------------------|
D|-----------------2~-------22---------------------------------------|
A|-2~----2-4-5-4-2-------------5-4-2~----2-4-5-4-2-------------------|
E|-----------------------00------------------------00-000-00x--------|

Chorus
"So how are you..."
5.
G|------------------------------------------------------------------|
D|------------------------------------------------------------------|
A|-00-000-0----------------55-555-500-000-0----------------55-555-5-|
E|---------00-000-022-222-2----------------00-000-022-222-2---------|

"Mom and Dad broke up..."
6.
G|------------------------------------------------------------------|
D|------------------------------------------------------------------|
A|-00-000-0----------------55-555-500x---------------------55-555-5-|
E|---------00-000-022-222-2----------------00x-----22-222-2---------|

Verse
"Jukebox full of memories..."
7.
G|------------------------------------------------------------------|
D|-----------------00-000-000-000-0----------------00-000-000-000-0-|
A|------------------------------------------------------------------|
E|-00-000-022-222-2----------------00-000-022-222-2-----------------|

"What happened to the excitement..."
8.
G|----------------------------------------------------------------|
D|-----------------00-000-000-000-0----------------00-000-000-----|
A|------------------------------------------------------------5-4-|
E|-00-000-022-222-2----------------00-000-022-222-2---------------|

Pre-Chorus
"Come around the block..."
9.
G|-------------------------------------------------------------------|
D|-----------------2~-------22---------------------------------------|
A|-2~----2-4-5-4-2-------------5-4-2~----2-4-5-4-2-------------------|
E|-----------------------00------------------------00-000-00x--------|

Chorus
"So how are you..."
10.
G|------------------------------------------------------------------|
D|------------------------------------------------------------------|
A|-00-000-0----------------55-555-500-000-0----------------55-555-5-|
E|---------00-000-022-222-2----------------00-000-022-222-2---------|

"Mom and Dad broke up..."
11.
G|------------------------------------------------------------------|
D|------------------------------------------------------------------|
A|-00-000-0----------------55-555-500x---------------------55-555-5-|
E|---------00-000-022-222-2----------------00x-----22-222-2---------|

Bridge
12.
G|---4--4-4---6--6-6---2--1-1---2--1-1---4--4-4---6--6-6---2--1-1---2--1-1-|
D|-22-22-2--44-44-4--00-00-0--00-00-0--22-22-2--44-44-4--00-00-0--00-00-0--|
A|-------------------------------------------------------------------------|--x2
E|-------------------------------------------------------------------------|

"Everytime I hear them..."
13.
G|---4--4-4---6--6-6---2--1-1---2--1-1---4--4-4---6--6-6-------------------|
D|-22-22-2--44-44-4--00-00-0--00-00-0--22-22-2--44-44-4--00000000-0x-------|
A|-------------------------------------------------------------------------|
E|-------------------------------------------------------------------------|

Outro
14.
G|------------------------------------------------------------------|
D|------------------------------------------------------------------|
A|-00-000-0----------------55-555-500-000-0----------------55-555-5-|
E|---------00-000-022-222-2----------------00-000-022-222-2---------|

15.
G|------------------------------------------------------------------|
D|-----------------------------------------22-222-244-444-4---------|
A|-00x---------------------55-555-500-000-0----------------5x-------|
E|---------00x-----22-222-2-----------------------------------------|

16.
G|-----------------|
D|-----------------|
A|-5-4-2-0~--------|
E|-----------------|


Lyrics:

Take me to a place where only happiness is all around. 
1986 is where we'd go, sit out side with all my best friends, 
fighting over baseball cards. 
A tought of nothing to worry about.

Come around the block and check the club house (no one's home). 
I'll make sure you enjoy your stay anyway. 

So how are you? doing fine. 
Well, things have been worse by the year. 
Mom and dad broke up and we all grew up but, I stayed the same kid.

Jukebox full of memories, I lost when they were packed away. 
Lucky to have found them in my mind. 
What happend to the excitement we once had that disappeared? 
Something I am destined yet to find. 

Themes from old TV shows. 
Broken radio.
Every time I hear them, it takes me back home.

_________________________________________________________________________

6.

++++++++++++++++++++++++++++++++++++++
| Useless ID- Too Late To Start Over |
++++++++++++++++++++++++++++++++++++++


"Give me a pen and I'll write you a book of how we both fucked up..."

Tuning: Standard EADG


Intro
1.
G|-----------------------------------------------------------------|
D|-----------------------------------------------------------------|
A|-------3x--------5-555-----------------3x--------5-555-7x--------|
E|-3-333-----------------0x--------3-333---------------------------|

Verse
"You know my story..."
2.
G|-----------------------------------------------------------------|
D|-----------------------------------------------------------------|
A|-------3x--------5-555-----------------3x--------5-555-7x--------|
E|-3-333-----------------0x--------3-333---------------------------|

"If I would lose you..."
3.
G|-----------------------------------------------------------|
D|-----------------------------------------------------------|
A|-------3x--------5-555-----------------3-3-333-5-555-77-22-|
E|-3-333-----------------0x--------3-333---------------------|

Chorus
"Lights out to expectations..."
4.
G|-------------------------------------------------------------------------------------|
D|-------------------------------------------------------------------------------------|
A|-3-3333-33-333-5-5555-55-555-----------------------------3-3333-33-333-5-5555-55-555-|
E|-----------------------------3-3333-33-333-0-0000-00-000-----------------------------|

Outro
5.
G|-------------------------------------------------------------|
D|-------------------------------------------------------------|
A|-------3-33-333-5-555----------------3-33-333-5-555-7-77-777-|
E|-3-333----------------0-00-000-3-333-------------------------|

Verse
"I know all about you..."
6.
G|-------------------------------------------------------------|
D|-------------------------------------------------------------|
A|-------3-33-333-5-555----------------3-33-333-5-555-7-77-777-|
E|-3-333----------------0-00-000-3-333-------------------------|

"Of how we both fucked up..."
7.
G|----------------------------------------------------------|
D|----------------------------------------------------------|
A|-------3-33-333-5-555----------------3-33-333-5-555-77-22-|
E|-3-333----------------0-00-000-3-333----------------------|

Chorus
"I send you stationary..."
8.
G|-------------------------------------------------------------------------|
D|-------------------------------------------------------------------------|
A|-33333333-55555555-------------------33333333-55555555--------------2222-|
E|-------------------33333333-00000000-------------------33333333-0000-----|

When Yotam sings Inconclusion, the bass hits a Drop D, but it isnt that important lol
"Next morning inconclusion..."  
9.
G|-------------------------------------------------------------------------------------------|
D|-------------------------------------------------------------------------------------------|
A|-33333333-5x-------55-----------------------------22222222-3333x-3~--------3333x-6~--------|
E|-----------------------33333333-22222222-00000000------------------------------------------|

Outro
10.
G|-------------------------------------------------------------------------|
D|-------------------------------------------------------------------------|
A|----------------------------------------------22222222-33333333----------|
E|-0x----------------------------------00000000-------------------33333333-|

11.
G|-------------------------------------------------------------------------|
D|-------------------------------------------------------------------------|
A|----------22222222-33333333-------------------22222222-33333333----------|
E|-00000000-------------------33333333-00000000-------------------3333x----|

12.
G|-------------------------------------------------------------------------|
D|-------------------------------------------------------55555554-22222222-|
A|-22222202-33333320-------------------22222202-33333320-------------------|
E|-------------------33333332-00000000-------------------------------------|

13.
G|----------------------|
D|----------------------|
A|----------------------|
E|-333x-----------------|


Lyrics:

You know my story.
I've been telling it to anyone I could find.
If I would lose you, I'd lose my mind, 
over and over again until next time.

Lights out to expectations. 
Goodbye to bad intentions. 
There's nothing wrong with letting go.

I know all about you.
Give me a pen and I'll write you a book of how we both fucked up, 
walked away, got back just in time to make up for the new years.

I send you stationary. 
It wasn't ordinary.
You got it and told me that everything would be O.K. 
Next morning came conclusion:
It's too late to start all over.
(Sorry about the past)

__________________________________________________________________

7.

++++++++++++++++++++++++++++
| Useless ID- Unhappy Hour |
++++++++++++++++++++++++++++


"No vacation from this fucked up world..."

Tuning: Standard EADG



Verse
"Would you go with me..."
1.
G|-------------------------------------------------------------------|
D|-------------------------------------------------------------------|
A|---------00-000-0------------22-244-444-400-000-022-222-22x--------|
E|-00-000-0--------00-000-000-0--------------------------------------|

"Cleaning up would be hard..."
2.
G|-------------------------------------------------------------------|
D|-------------------------------------------------------------------|
A|---------00-000-0----22-244-444-400-000-000-000-022-222-2----------|
E|-00-000-0--------00-0------------------------------------4x--------|

Chorus
"How can anything go right..."
3.
G|---------------------------------------------------------------------|
D|-----------------22-211-1--------------------------------1-1x--------|
A|-00-000-022-222-2--------44-422-200-000-0----------------------------|
E|-----------------------------------------44-444-422-222-2------------|

Outro
4.
G|------------------------------------------------------------------|
D|------------------------------------------------------------------|
A|---------22-222-244-444-400-000-0--------22-222-244-444-400-000-0-|
E|-00-000-0------------------------00-000-0-------------------------|

5.
G|---------------------------|
D|---------------------------|
A|-------4~----0~----2-2x----|
E|-0~------------------------|

Verse
"Winter day screams me up..."
6.
G|-------------------------------------------------------------------|
D|-------------------------------------------------------------------|
A|---------00-000-0------------22-244-444-400-000-022-222-2233-333-3-|
E|-00-000-0--------00-000-000-0--------------------------------------|

Chorus
"So now you know..."
7.
G|-------------------------------------------------------|
D|-------------------------------------------------------|
A|-44-444-4----------------44-444-4----------------0~----|
E|---------00-000-022-222-2--------22-222-222-222-2------|

Outro
8.
G|---------|
D|-2-2x----|
A|---------|
E|---------|

Lyrics:

Would you go with me to unhappy hour? 
have a dink' pass out on the floor.
Cleaning up would be hard, get a ride home.
Fall asleep alone, wake up and smile.

Now you wonder...
How could anything go right in such a fucked up world, 
where logic doesn't play a role anymore?

Winter day screams me up in the morning. 
While insomnia kicks in at night.
Alright, so now you know you received it too.
No vacation from this fucked up world!

_____________________________________________________________________

8.

+++++++++++++++++++++++++++++
| Useless ID- Birthday Song |
+++++++++++++++++++++++++++++


Tuning: EADG

Verse
"It was a sunday..."
1.
G|-------------------------------------------------------------------------|
D|----------------------------00000000----------------------------00001111-|
A|----------22222222-33333333-------------------22222222-33333333----------|
E|-33333333----------------------------33333333----------------------------|

Pre-Chorus
"Now she needs an answer..."
2.
G|---------------------------------------|
D|----------------------------0-000-0000-|
A|---------2-222-2222-3-3-33-------------|--x2
E|-0-0-00--------------------------------|

Verse
"Im sitting and waiting..."
3.
G|---------------------------------------------------------------------|
D|-------------------------000x-------------------------------00001111-|
A|---------222x----333x---------------------22222222-33333333----------|
E|-333x----------------------------33333333----------------------------|

Pre-Chorus
"Now she needs an answer..."
4.
G|---------------------------------------|
D|----------------------------0-000-0000-|
A|---------2-222-2222-3-3-33-------------|
E|-0-0-00--------------------------------|

"I forgot her birthday..."
5.
G|---------------------------------------|
D|----------------------------0-000-xxxx-|
A|---------2-222-2222-3-3-33-------------|
E|-0-0-00--------------------------------|

Chorus
"After all...We can be friends..."
6.
G|----------------------------------------------------------------------------|
D|----------------------------------------------------------------------------|
A|-3-3-33--5-555-5555---------------------3-3-33--5-555-5555------------------|
E|--------------------3333-2222-00000000---------------------3333333-00000000-|

"After all...We can be friends..."
7.
G|----------------------------------------------------------|
D|----------------------------------------------------------|
A|-3-3-33--5-555-5555---------------------3-3-33--5~--------|
E|--------------------3x---2x---00000000--------------------|

8.
G|--------------------|
D|--------------------|
A|-55555555-5~--------|
E|--------------------|

"Cus it was her birthday..."
9.
G|-----------------------------------------------------------------------------|
D|----------------------------0-000-0000----------------------------0-000-0000-|
A|---------2-222-2222-3-3-33---------------------2-222-2222-3-3-33-------------|
E|-3-3-33--------------------------------3-3-33--------------------------------|

10.
G|-------------------------------------------------------------------------|
D|----------------------------00000000----------------------------00000000-|
A|----------22222222-33333333-------------------22222222-33333333----------|
E|-33333333----------------------------33333333----------------------------|

"It was her birthday..."
11.
G|----------------------|
D|----------------------|
A|----------------------|
E|-0~------0/12~--------|

Lyrics:

It was a sunday,
I never tought I could forget.
If I would remember'
I wouldn't be full of regret.

Now she needs an answer.
I forgot her Birthday.

Sitting and waiting,
I want her to know that I care.
No matter what I say,
I never make it up to her.

After all we can be friends
Still pretend all the time.

'cause it was her birthday.

________________________________________________________________

9.

+++++++++++++++++++++
| Useless ID- Crush |
+++++++++++++++++++++


Tuning: EADG

Intro
1.
G|----------------------|
D|----------------------|
A|-0x--------22x--------|
E|----------------------|

2.
G|------------------------|
D|----------------1-2-2-4-|
A|---------2~-222---------|
E|-0-0-000----------------|

Verse
"I took a walk outside..."
3.
G|--------------------------------------------------------------------------|
D|--------------------------------------------------------------------------|
A|-------------------00000000-2222-3333-44444444-00000000-22222222-22222222-|
E|-00000000-44444444--------------------------------------------------------|

4.
G|--------------------------------------------------------------------------|
D|---------------------------------4444-------------------------------------|
A|-------------------00000000-2222------44444444-00000000-22222222----------|
E|-00000000-44444444-----------------------------------------------44444444-|

Chorus
"If I say hello..."
5.
G|-------------------------------------------------------------------------|
D|-------------------------------------------------------------------------|
A|-00000000----------44444444-22222222-00000000----------22222222----------|
E|----------00000000----------------------------00000000----------44444444-|

6.
G|----------------------------------------------------------|
D|----------------------------------------------------------|
A|-00000000----------44444444-22222222-0x--------22x--------|
E|----------00000000----------------------------------------|

Outro
"Tonight..."
7.
G|------------------------|
D|----------------1-2-2-4-|
A|---------2~-222---------|
E|-0-0-000----------------|

Verse
"I know where you're at..."
8.
G|-----------------------------------------------------------------|
D|-----------------------------------------------------------4-2-1-|
A|-----------------00000x--222-3333-44444x--0000000-22222x--2-2-2--|
E|-00000x--4444444-------------------------------------------------|

9.
G|---------------------------------------------------------------------|
D|---------------------------------------------------------------------|
A|------------------00000x--222-3333-44444x--0000000-22222222----------|
E|-00000000-4444444-------------------------------------------44444444-|

Chorus
10.
G|-------------------------------------------------------------------------|
D|-------------------------------------------------------------------------|
A|-00000000----------44444444-22222222-00000000----------22222222----------|
E|----------00000000----------------------------00000000----------44444444-|

11.
G|----------------------------------------------------------|
D|----------------------------------------------------------|
A|-0x--xxx-----------44444444-22222222-00000000x-22x--------|
E|----------00000000----------------------------------------|

Bridge (Bass Solo)
12.
G|--------------------------------------------------|
D|-------6---6-------4---4-------2---2--2-2-6-----4-|
A|-4-4-4---4---2-2-2---2---0-0-0---0----------2-2---|
E|--------------------------------------------------|

13.
G|--------------------------------------------------|
D|-------6---6-------4---4-------2---2--2x----------|
A|-4-4-4---4---2-2-2---2---0-0-0---0----------------|
E|--------------------------------------------------|

14.
G|--------------------------------------------------|
D|-------6---6-------4---4-------2---2--2-2-6-----4-|
A|-4-4-4---4---2-2-2---2---0-0-0---0----------2-2---|--x3
E|--------------------------------------------------|

15.
G|-----------------------------------|
D|-------6---6-------4---------------|
A|-4-4-4---4---2-2-2---3-4-0~--------|
E|-----------------------------------|

"But theres one more thing we should know..."
16.
G|-------------|
D|-------------|
A|-22222222----|
E|----------4x-|

Chorus
17.
G|-----------------------------------------------|
D|-----------------------------------------------|
A|-00000000----------44444444----------0~--------|
E|----------00000000----------44444444-----------|

Lyrics:


I took a walk outside and carried thoughts of you with me to the ocean.
A faded image seen from far away reminded me of you.
Mabye now it's time to let it out.

If I say hello, would you hide away?
While the dream of love at first site dies out.
Here I am losing you once again, tonight.

I know where you're at and you know even better that I got a crush on 
since the summer came around.
If you'd listen up, give me a chance to express the way I feel.
I promise you we'd be alright.

If I say goodbye, would it be the last?
two more years and you might know me.
I will be the one singing this melody to you...

Nothing left to say since you heard it all.
But there's one more thing you should know.
Ever since that day can't stop thinking of you.

_________________________________________________________________________

10.

++++++++++++++++++++++++++
| Useless ID- Weird Rock |
++++++++++++++++++++++++++


Tuning: EADG

Intro
1.
G|--------------------------------------------------|
D|--------------------------------------------------|
A|----------3x----------------------------0000------|
E|-44444444-----------3333-1111-0000-0000------1111-|

2.
G|-----------------------------------------|
D|-----------------------------------------|
A|-3333-3333---------------------0000------|
E|-----------3333-1111-0000-0000------1111-|

Verse
"You gave me winter day..."
3.
G|---------------------------------------------------------------------------------|
D|---------------------------------------------------------------------------------|
A|-3333-3333---------------------0000------3333-3333---------------------0000------|
E|-----------3333-1111-0000-0000------1111-----------3333-1111-0000-0000------1111-|

Pre-Chorus
"Weird rock, all night..."
4.
G|---------------------------------------------|
D|---------------------------------------------|
A|-3333-3333-----------------------------------|
E|-----------4444-4444-5x---5-3x---3-1-1-1~----|

Chorus
"You and me..."
5.
G|--------------------------------------------------------------------------|
D|--------------------------------------------------------------------------|
A|-33333333-33333333--------------------------------------------------------|
E|-------------------33333333-33333333-55555555-33333333-11111111-11111-333-|

"All the time..."
6.
G|--------------------------------------------------------------------------|
D|--------------------------------------------------------------------------|
A|-33333333-33333333--------------------------------------------------------|
E|-------------------00000000-00000000-11111111-33333333-11111111-3~--------|

Verse

Bass silents for a bit
and comes back at

"I woke up without you..."
7.
G|-------------|
D|-------------|
A|-000x--------|
E|-------111x--|

Pre-Chorus
"Weird rock, all night..."
8.
G|-------------------------------------------|
D|-------------------------------------------|
A|-3333-3333---------------------------------|
E|-----------4444-4444-55x---33x---1-1-1~----|

Chorus
"You and me..."
9.
G|--------------------------------------------------------------------------|
D|--------------------------------------------------------------------------|
A|-33333333-33333333--------------------------------------------------------|
E|-------------------33333333-33333333-55555555-33333333-11111111-11111-333-|

"All the time..."
10.
G|--------------------------------------------------------------------------|
D|--------------------------------------------------------------------------|
A|-33333333-33333333--------------------------------------------------------|
E|-------------------00000000-00000000-11111111-33333333-11111111-3~--------|

Bridge
11.
G|-------------------------------------|
D|-------------------------------------|
A|-------------------------------------|--x3
E|-0-0-0-0-0-55~-5-5-1-1-1-1-1-33~-3-3-|

12.
G|-----------------------------------------------|
D|-----------------------------------------------|
A|--------------------------------------------3x-|
E|-0-0-0-0-0-55~-5-5-1-1-1-1-1-1-1-1-44444444----|

Lyrics:

You gave me winter day.
Oh, that's why I loved you.
You made it all the way home, so that I would find you.

Weird rock, all night.
It was all we wanted.
But, you and me were always meant to be a novelty.
I'm loss for words and you are lost in me, lost in me again.
All the time I've been through hell.
You weren't even mine.
If you change your mind I won't be around, I won't be around.

You made me fade away from the pepole who hate you.
You took your stuff today then I woke up without you.

___________________________________________________________________

11.

++++++++++++++++++++++++++++++++++++
| Useless ID- Stuck Without A Ride |
++++++++++++++++++++++++++++++++++++

EADG

0:23
Intro
"Its allright..."
1.
G|----------------------------------|
D|----------------------------------|
A|----------------------------------|
E|-33-333-333-333-333-333-333-333-3-|

Chorus
"There is nothing in your heart..."
2.
G|------------------------------------------------------------------|
D|------------------------------------------------------------------|
A|-33-333-322-222-200-000-0--------33-333-3-------------------------|
E|-------------------------11-111-1--------00-000-055-555-511-111-1-|

Verse
"Sort of like a star..." 
3.
G|------------------------------------------------------------------|
D|------------------------------------------------------------------|
A|-33-333-322-222-211-111-1-----------------------------------------|
E|-------------------------11-111-133-333-333-333-333-333-333-333-3-|

Pre-Chorus
"So if you give up..."
4.
G|------------------------------------------------------------------|
D|------------------------------------------------------------------|
A|------------------------------------------------------------------|
E|-55-555-555-555-533-333-333-333-311-111-111-111-133-333-333-333-3-|

"Im not listening..."
5.
G|---------------------------------------------------------------------|
D|---------------------------------------------------------------------|
A|------------------------------------------------------------------3x-|
E|-55-555-555-555-533-333-333-333-311-111-111-111-133-333-333-333-3----|

Chorus
"And you'll be stuck without a ride..."
6.
G|-------------------------------------------------------------------------|
D|-------------------------------------------------------------------------|
A|-------------33-3333-22-2222-00-0000-------33-3333-22-2222-00-0000-------|
E|-1x----3x----------------------------11-33-------------------------11-33-|

Outro
7.
G|----------------------------------------------------------------------------------|
D|----------------------------------------------------------------------------------|
A|-3-3-3333-2-2-2222-0-0-0000----------3-3-3333-2-2-2222-0-0-0000-----------3x--33x-|
E|----------------------------11-133-3----------------------------11-1333-3---------|


Lyrics:

Always looking for despire when you are complicating.
Things that don't exist in there, somehow deserve berating.
As everybody laughs can't look them in the eye. It's alright.
There is nothing in your heart that can't stay forever.
Surprised at what you pull apart until it stays together.
Sort of like a star that's clearly lost it's shine tonight, it's not bright.

So when you give up, don't expect me to be around again.
Because you lost yourself and you lost a friend.
I'm not listening anymore.
So when you come knocking on my door,
I'll be gone somewhere inside and you'll be stuck without a ride.

_______________________________________________________________________________________

12.

+++++++++++++++++++++
| Useless ID- Diary |
+++++++++++++++++++++


No Bass on this song


Lyrics:

It's a weekday and I cleaned my room again,
of endless moments I thought we once shared.
An open book, read every single page.
Naive enough to think that help is on the way.

Rise and shine a day awaits,
watching clear skies turn to grey.
It's a dead end road and I want out.
There's no return.
Let me know when will it end?
If only you were my only friend, Id be fine.

A direction split right from the start.
I'm picking up the pieces to this broken heart.
Move over and make room for someone else.
Mabye a smile will find itself right on your face agian.

Another empty sleeping bag. A broken speaker plays out loud.
An Elliot Smith song for those who can't move on and on.
A tour to write you home about of how I'm doing. Pretty sad.
You're not here and all my letters are lost in the mailbox for good

____________________________________________________________________________________

13.

++++++++++++++++++++++++++++++++
| Useless ID- At Least I Tried |
++++++++++++++++++++++++++++++++


"How about I just wait one more monday..."

Tuning: Standard EADG


Intro
1.
G|-----------------------------------------------------|
D|-----------------------------------------------------|
A|-------------------------------------7-77-77-6-66-66-|
E|-0-00-00~----4-44-44~----5-55-55~--------------------|

2.
G|-------------------------------------------------|
D|-------------------------------------------------|
A|-4-44-44~----------------0-00-00~----2-22-22~----|
E|-------------4-44-44~----------------------------|

3.
G|-------------------------------------------------------------------------|
D|-------------------------------------------------------------------------|
A|-------------------------------------------------------77777777-66666666-|
E|-00000000-00000000-44444444-44444444-55555555-55555555-------------------|

4.
G|-------------------------------------------------------------------------|
D|-------------------------------------------------------------------------|
A|-44444444-44444444-------------------00000000-00000000-22222222-22222222-|
E|-------------------44444444-44444444-------------------------------------|

Verse
"How come first love..."
5.
G|-----------------------------------------------------------------|
D|-----------------------------------------------------------------|
A|------------------------------------------------7-77-7776-66-666-|
E|-000-000-000-0004-44-444-444-4445-55-555-555-555-----------------|

"Eight years ago..."
6.
G|-----------------------------------------------------------------|
D|-----------------------------------------------------------------|
A|-444-444-444-444----------------0-00-000-000-0002-22-2222-22-222-|
E|----------------4-44-444-444-444---------------------------------|

"Ever since then..."
7.
G|-------------------------------------------------------------------------|
D|-------------------------------------------------------------------------|
A|-------------------------------------------------------77777777-66666666-|
E|-00000000-00000000-44444444-44444444-55555555-55555555-------------------|

"How shy of me..."
8.
G|-------------------------------------------------------------------------|
D|-------------------------------------------------------------------------|
A|-44444444-44444444-------------------00000000-00000000-22222222-2x---66--|
E|-------------------44444444-44444444-------------------------------------|

Chorus
"Many days that I remember..."
9.
G|--------------------------------------------------------------------|
D|--------------------------------------------------------------------|
A|-------------------00000000-00000000-22222222-22222222-7~-77-6~-6-6-|
E|-00000000-00000000--------------------------------------------------|

"We're both alone and I cant help it..."
10.
G|-------------------------------------------------------------------------|
D|-------------------------------------------------------------------------|
A|-44444444-44444444-00000000-00000000-22222222-22222222-22222222-22222222-|
E|-------------------------------------------------------------------------|

Outro
11.
G|-------------------------------------------------------------------------|
D|-------------------------------------------------------------------------|
A|-------------------------------------------------------77777777-66666666-|
E|-00000000-00000000-44444444-44444444-55555555-55555555-------------------|

12.
G|-------------------------------------------------------------------------|
D|-------------------------------------------------------------------------|
A|-44444444-44444444-------------------00000000-00000000-22222222-22222222-|
E|-------------------44444444-44444444-------------------------------------|

Verse
"Its a rainy day outside..."
13.
G|-----------------------------------------------------|
D|---------------------------------------99------------|
A|---77----------66----------77-77~----7----77-6-66-66-|
E|-0----00~----7----77~----5---------------------------|

"I just saw you across the street..."
14.
G|-------------------------------------------------------|
D|---66-66~------66-66~----------------------------------|
A|-4-----------------------0-00-00~----2x----------------|
E|-------------4-----------------------------------------|

"Next stop Im getting off..."
15.
G|-------------------------------------------------------------------------|
D|-------------------------------------------------------------------------|
A|-------------------------------------------------------77777777-66666666-|
E|-00000000-00000000-44444444-44444444-55555555-55555555-------------------|

"You are gone"
16.
G|-------------------------------------------------------------------------|
D|-------------------------------------------------------------------------|
A|-44444444-44444444-------------------00000000-00000000-22222222-2x-------|
E|-------------------44444444-44444444-------------------------------------|

Chorus
"Many days that I remember..."
17.
G|--------------------------------------------------------------------|
D|--------------------------------------------------------------------|
A|-------------------00000000-00000000-22222222-22222222-7~-77-6~-6-6-|
E|-00000000-00000000--------------------------------------------------|

"We're both alone and I cant help it..."
18.
G|-------------------------------------------------------------------------|
D|-------------------------------------------------------------------------|
A|-44444444-44444444-00000000-00000000-22222222-22222222-22222222-3~-------|
E|-------------------------------------------------------------------------|

"I got a message you have someone..."
19.
G|----------------------------------------------------------------------|
D|----------------------------------------------------------------------|
A|-44444444-44444444-00000000-00000000-22222222-22222222-7~-77-9-9x-----|
E|----------------------------------------------------------------------|

"I can go on from now..."
20.
G|-------------------------------------------------------------------------|
D|-------------------------------------------------------------------------|
A|-44444444-44444444-00000000-00000000-22222222-22222222-2~----------------|
E|-------------------------------------------------------------------------|

Outro
21.
G|----------------------------------------|
D|----------------------------------------|
A|-0-0-0~----3-3-3~----4-4-4~----6~-------|
E|----------------------------------------|

22.
G|------------------------------------------------------|
D|------------------------------------------------------|
A|-77777777--3333333-44444444-2222222-0~----------------|
E|------------------------------------------------------|


Lyrics:


How come first love always last a life time? 8 years ago. 
First time that I saw you.
Ever since then I had my yearly thought 
of how shy of me to never come and tell you that...

Many days that I remember sitting by the phone,
crying and afraid to call you, knowing you're at home.
We're both alone and I can't help it.
How about I just wait one more monday...

It's a rainy day outside and it's colder on this bus.
I just saw you across the street, waiting.
Next stop I'm getting off to relive my 80's drama flick.
You are gone. Tommorrow I'll call in sick.

I got a message you have someone.
Happy all the time.
No room for me this time around.
Let's get on with our lives.
I can go on from now and know that deep inside,
At least I tried.

____________________________________________________________________

14.

+++++++++++++++++++
| Useless ID- End |
+++++++++++++++++++


"I'd love you forever..."


Tuning: Standard EADG


Verse
"Then you find each other..."
1.
G|------------------------------------------------------------------|
D|------------------------------------------------------------------|
A|-00-000-000-000-055-555-555-555-5---------------------------------|
E|---------------------------------33-333-322-222-200-000-000-000-0-|

"You promise to write..."
2.
G|----------------------------------|
D|----------------------------------|
A|-33-333-333-333-355-555-555-555-5-|
E|----------------------------------|

3.
G|------------------------------------------------------------------|
D|------------------------------------------------------------------|
A|---------------------------------00-000-000-000-055-555-555-555-5-|
E|-00-000-000-000-000-000-044-444-4---------------------------------|

"Im alright and missing you..."
4.
G|------------------------------------------------------------------|
D|------------------------------------------------------------------|
A|---------------------------------33-333-333-333-333-333-333-333-3-|
E|-33-333-322-222-200-000-000-000-0---------------------------------|

"With words from a note..."
5.
G|------------------------------------------------------------------|
D|------------------------------------------------------------------|
A|-------------------------------------------------77-777-777-777-7-|
E|-33-333-333-333-322-222-222-222-200-000-000-000-0-----------------|

"I'd love you forever..."
6.
G|------------------------------------------------------------------|
D|------------------------------------------------------------------|
A|-00-000-000-000-055-555-555-555-5---------------------------------|
E|---------------------------------33-333-322-222-20~----------------|

"I know that by then..."
7.
G|----------------------------------|
D|----------------------------------|
A|-33-333-333-333-355-555-566-666-6-|
E|----------------------------------|

Outro
8.
G|------------------------------------------------------------------|
D|------------------------------------------------------------------|
A|---------55-555-533-333-355-555-577-777-755-555-533-333-333-332-2-|
E|-00-000-0---------------------------------------------------------|

9.
G|------------------------------------------------------------------|
D|------------------------------------------------------------------|
A|-77-777-755-555-533-333-355-566-677-777-755-555-533-333-333-332-2-|--Play until song fades
E|------------------------------------------------------------------|


Lyrics:

Nothing to hold on to when you're alone, then you find each other.
She heard you're leaving in august.
You promise to write, she's waiting at home.
An unanswered call.
I want you to know I'm alright and missing you.
Too bad I'm stuck here with words from a note 
that you sent long ago: "I'd love you forever"
But I'll be back in november.
I know that by then it will be the end.

___________________________________________________________________________


Thank you so much!!
Please rate!!


+++++++++++++++++++++++++++++++++
| RaiLeff                       |
| Underground__Dora@Hotmail.Com |
+++++++++++++++++++++++++++++++++

            
            
Suggest correction
Creating personal tab
Creating personal tab
You can edit any tab online and save it as your Personal.

You can edit, replace or remove any tab part or add personal notes – all changes will be seen only by you.

Personal tabs can be accessed anytime from any device, even offline.
Learn more »
Give kudos to tab author, rate the tab!
1 2 3 4 5
comments
print report bad tab
guest
You may want to rate the tab now too:
select rating
Wanna post a correction for this tab? Suggest correction