Oops, an error
Loading. Please wait.

Redemption album bass

version 1
version 1

Album

Whole song

327 views 1 this week
no commentswrite comment
1 2 3 4 5
2 more votes to show rating
add to favorites
×
Save as Personal and add changes to this tab that will be seen only by you. Learn more ›
×
You can save this tab as Personal to edit and correct it or add notes. All changes will be seen only by you. Learn more »
launch autoscroll
font size
0
reset
guitar tuner
edit
Autoscroll
slow
fast
+/-
esc
set tempo
stop
Author
++++++++++++++++++++++++++
| Useless ID- Redemption |
++++++++++++++++++++++++++

Bass Tab
Album: "Redemption" -- 2004
Tabbed By: RaiLeff 
E-Mail: Underground__Dora@Hotmail.Com

Whaaats up everyone?
Its been so long since I tabbed out another album
I havent had any time lately :(
Well, here it is
One of the best albums by Useless ID, great band
Enjoy and rate, cheers!

*Note
All these tabs are my own ear transcribed material
Only that some of them are in a different format since
some of these were the first tabs I ever wrote
and by the time I went increasing my technique
Enjooooooooooy!

..::RaiLeff::.. [!]

___________________________

Tuning: EADG

Keys:

Keys:

| x: Mute
| ~: Let Ring
| /: Slide Up
| \: Slide Down
| h: Hammer On
| p: Pull Off

Tracks:

1. It's Allright
2. Kiss Me. Kill Me
3. Pink Stars And Magazines
4. Deny It
5. Suffer For The Fame
6. Turn Up The Stereo
7. Before I Go
8. Dying Love
9. Drinkage
10. Everything Turned Red
11. State Of Fear
12. Redemption

_______________________________________

1. It's Allright

Tuning: EADG

"But it's allright.." 0:19
1.
G|---------------------------------------|
D|---------------------------------------|
A|-222222222-----------------------------|
E|----------222222222-444444444-000000000|

"But it's allright.."
2.
G|-----------------------------------|
D|-----------------------------------|
A|-222222222-------------------------|
E|----------222222222-444444444-0~---|

3.
G|-----------------------------------|
D|-----------------------------------|
A|-22-2-2-22-2-2-22-2-2-2------------|
E|-----------------------------------|

"She will poison you again.." x2
4.
G|-----------------------------------|
D|-----------------------------------|
A|-222222222222222222----22222-------|
E|-------------------0000-----4444222|

"But it's allright.." x2
5.
G|---------------------------------------|
D|---------------------------------------|
A|-222222222-----------------------------|
E|----------222222222-444444444-000000000|

"When you say.. HEY !" x3
6.
G|------------------------|
D|------------------------|
A|-----------------22222--|
E|-4444-00000-2222--------|

"When we lost it all.."
7.
G|-------------------------|
D|-------------------------|
A|-------------------------|
E|-4444-00000-222222222222-|

8.
G|-----------------------------------|
D|-----------------------------------|
A|-22-2-2-22-2-2-22-2-2-2------------|
E|-----------------------------------|

"Tune in listen to.."
9.
G|---------------------|
D|---------------------|
A|-2~----------2~------|
E|---------4~------0~--|

"Dont you realize.."
10.
G|----------------------------------|
D|----------------------------------|
A|-222222222222222222-----2x--------|
E|--------------------4x------0~----|

Chorus
"But it's allright..." x2
11.
G|---------------------------------------|
D|---------------------------------------|
A|-222222222-----------------------------|
E|----------222222222-444444444-000000000|

"When you say..Hey!" x3
12.
G|------------------------|
D|------------------------|
A|-----------------22222--|
E|-4444-00000-2222--------|

"When we lost it all..."
13.
G|---------------|
D|---------------|
A|---------------|
E|-4444-00000-2x-|

"Save the best times.." x2
14.
G|-----------------------------------|
D|-----------------------------------|
A|--------------------------222x-222x|
E|-000x--222x-222x----444x-----------|

"Dissapointment.."
15.
G|----------------------------------------|
D|----------------------------------------|
A|----------111111111---------------------|
E|-000000000----------444444444-333333333-|

16.
G|----------------------------------------|
D|----------------------------------------|
A|----------------------------------------|
E|-000000000-222222222-4444-00000-2222222-|

17.
G|----------------------------------------|
D|----------------------------------------|
A|----------------------------------------|
E|-4444-00000-222222222---4x--0x-2~-------|

Lyrics:

Tune in listen to
What I have to say to you
Why be sorry when youre not
Dont you realize
Theres no consollation prize
When you're betting all youve won

But its alright
I wont let you down
I wont let this fade away

She will poison you again
Just to get her sweet revenge
You believe its not what she is after
You are not in love my friend
Save it for someone who cares
Things will never be the same between us

When you say..HEY!
The writing is on the wall
Not so far away.. NO!
I wont share the past
With you in anyway
How come we pretend
Everythings ok
When we lost it all

Save the best times
Lose my trust along the way
Ill forget it
While you remember it that way
Dissapointment
Thats what happens when you
Trade me in for one mistake

__________________________________________________-

2. Kiss Me. Kill Me

Tuning: EADG

Verse
"Tell me, tell me.."
1.
G|-----------------|
D|-----------------|
A|-44444-----------|
E|-------4-666-644-|

"Listen to The Cure.."
2.
G|-----------------|
D|-----------------|
A|-44444-----------|
E|-------4-644-422-|

"Think about the day.."
3.
G|--------------------------------------|
D|--------------------------------------|
A|---------------------444444-44--------|
E|-6666-4444-2222-4444-----------4444-4-|

"Love me in a way.."
4.
G|-----------------|
D|-----------------|
A|-44444-----------|
E|-------4-666-644-|

"Kill me in a way.."
5.
G|-----------------|
D|-----------------|
A|-44444-----------|
E|-------4-644-422-|

"Light me..."
6.
G|--------------------|
D|--------------------|
A|--------------------|
E|-6666-4444-3333-555-|

Chorus
"Don't wanna kiss like this.."  
7.
G|-------------------------------------|
D|-------------------------------------|
A|-55555555-00000000-22222222----------|
E|----------------------------33333333-|

"With every day we miss.."
8.
G|-------------------------------------|
D|-------------------------------------|
A|-55555555----------22222222----------|
E|----------22222222----------33333333-|

"Don't wanna kiss like this.."  
9.
G|-------------------------------------|
D|-------------------------------------|
A|-55555555-00000000-22222222----------|
E|----------------------------33333333-|

"With every day we miss.."
10.
G|-------------------------------------|
D|-------------------------------------|
A|-55555555----------22222222-2--------|
E|----------22222222------------3333-5-|

Verse
"Meet me in the.."
11.
G|----|
D|----|
A|-4x-|
E|----|

"I'll take you to a place.."
12.
G|-----------------|
D|-----------------|
A|-44444-----------|
E|-------4-644-422-|

"We can think about the day.."
13.
G|--------------------------------------|
D|--------------------------------------|
A|---------------------444444-44--------|
E|-6666-4444-2222-4444-----------4444-4-|

"Gimme, gimme magic.."
14.
G|-----------------|
D|-----------------|
A|-44444-----------|
E|-------4-666-644-|

"These past few weeks.."
15.
G|-----------------|
D|-----------------|
A|-44444-----------|
E|-------4-644-422-|

"Lets give it a rest.."
16.
G|--------------------|
D|--------------------|
A|--------------------|
E|-6666-4444-3333-555-|

Chorus
"Don't wanna kiss like this.." 
17.
G|-------------------------------------|
D|-------------------------------------|
A|-55555555-00000000-22222222----------|
E|----------------------------33333333-|

"With every day we miss.."
18.
G|-------------------------------------|
D|-------------------------------------|
A|-55555555----------22222222----------|
E|----------22222222----------33333333-|

"Don't wanna kiss like this.."  
19.
G|-------------------------------------|
D|-------------------------------------|
A|-55555555-00000000-22222222----------|
E|----------------------------33333333-|

"With every day we miss.."
20.
G|-------------------------------------|
D|-------------------------------------|
A|-55555555----------22222222-2--------|
E|----------22222222------------3333-5-|

Bridge
"Send me another letter.."
21.
G|-------------------------------------|
D|-------------------------------------|
A|-222-------222-------222-------------|
E|-----22-3~-----22-3~-----22-333-5-55-|

"Why do we always.." 
22.
G|--------------------------------------------------|
D|---------------4444-----------------------------5~|
A|-22222-020-5555------------------------22222222---|
E|--------------------555555555-22222222------------|

Finish with the chorus

"With every day we miss.."
23.
G|-------------------------------------|
D|-------------------------------------|
A|-55555555----------22222222-------5x-|
E|----------22222222----------3~-------|

Lyrics:

Tell me tell me something I would know
Listen to the cure on the radio
Think about the day you made me feel again

Love me in a way you can't describe
Kill me in a way that I'll stay alive
Light me up so I can come back in

Don't wanna kiss like this
With everyday we miss
Don't wanna kiss like this
With everyday we miss

Meet me in the dark after the show
I'll take you to a place they'll never know
We'll think about the day your happiness was taken away
Gimme gimme magic cast a spell
These past few weeks I'm living hell
Let's give it a rest and come back when its time

Send me another letter
To be gathering dust with the rest
Emotions aside did we ever live up to the test
Why do we always end up coming back for more

__________________________________________________

3. Pink Stars And Magazines

Tuning: EADG

One two three four!!


Intro
1.
G|----------------------------------------------------------------------------|
D|----------------------------------------------------------------------------|
A|-5-55-2-22-1-11------5-55-2-22-1-11------5-55-2-22-1-11------5x--2x--1x-----|
E|----------------3333----------------3333----------------3333----------------|

Verse
"Pink stars and magazines, your latest issue..."
2.
G|----------------------------------------------------------------------------|
D|----------------------------------------------------------------------------|
A|-5-55-2-22-1-11------5-55-2-22-1-11------5-55-2-22-1-11------5-55-2-22-1x---|
E|----------------3333----------------3333----------------3333----------------|

"Tatoo my name into your heart and smile..." 
3.
G|--------------------------------------------------------------------------------|
D|--------------------------------------------------------------------------------|
A|-5-55-2-22-1-11------5-55-2-22-1-11------5-55-2-22-1-11------55x--22x--11x------|
E|----------------3333----------------3333----------------3333--------------------|

Chorus
"Now that I threw all my medicine away..."
4.
G|-----------------------------------------------------|
D|-------------------0-2-0-----2-4---------------------|
A|----------00000000-------4-2-----4----------00000000-|
E|-33333333--------------------------33333333----------|

Outro
5.
G|-----------------------------------------|
D|-----------------------------------------|
A|-5-55-2-22-1-11------5-55-2-22-1-11------|
E|----------------3333----------------3333-|

Verse
"These rotting butterflies dwell in your stomach..."
6.
G|------------------------------------------------------------------------------------|
D|------------------------------------------------------------------------------------|
A|-5-55-2-22-1-11------5-55-2-22-1-11------5-55-2-22-1-11------5-55-2-22-111111111111-|
E|----------------3333----------------3333----------------3333------------------------|

"You're living your life in a lie..."
7.
G|--------------------------------------------------------------------------------|
D|--------------------------------------------------------------------------------|
A|-5-55-2-22-1-11------5-55-2-22-1-11------5-55-2-22-1-11------55x--22x-----------|
E|----------------3333----------------3333----------------3333--------------------|

Chorus
"Now that I threw all my medicine away..."
8.
G|-----------------------------------------------------------------------|
D|-------------------0-2-0-----2-4---------------------00000000----------|
A|----------00000000-------4-2-----4----------00000000----------33333333-|
E|-33333333--------------------------33333333----------------------------|

"The damage is done..."
9.
G|---------------------------------------------------|
D|-------------2-----4-5-7---4-0---------------------|
A|---2-5---0-4---0-5-------2-----2----------00000000-|
E|-3-----3-------------------------33333333----------|

Bridge
10.
G|-------------------------------------------------------------------------|
D|-------------------------------------------------------------------------|
A|-5-55-----------1111-5-55-----------1111-5x----------1x--5x----------1-1-|
E|------2-22-3-33-----------2-22-3-33----------2x--3x----------2x--3-3-----|

11.
G|----------------------------------------------------------------------|
D|----------------------------------------------------------------------|
A|-5-5---------1111-5-5---------1111-5555-----------1111-5x----------1x-|
E|-----2-2-3-3----------2-2-3-3-----------2222-3333----------2x--3-3----|

Chorus
"Now that I threw all my medicine away..."
12.
G|-----------------------------------------------------------------------|
D|-------------------0-2-0-----2-4---------------------0x----------------|
A|----------00000000-------4-2-----4----------00000000----------3x-33-33-|
E|-33333333--------------------------33333333----------------------------|

"The damage is done..."
13.
G|---------------------------------------------------|
D|-------------2---0x--------------------------------|
A|---2-5---0-4---0-----3x--2x--0~-----------11111111-|
E|-3-----3-------------------------33333333----------|

Outro
"At all, dont follow me around..."
14.
G|------------------------------------------------------------------------------|
D|------------------------------------------------------------------------------|
A|-5555-----------1111-5555-----------1111-5555-----------1111-5x------------5x-|
E|------2222-3333-----------2222-3333-----------2222-3333----------2x--3x-------|


Lyrics:

Pink stars and magazines, your latest issue
Save me the drama queen for one day
Tattoo my name into your heart and smile
Obsession is your only way

Now that I threw all my medicine away,
Ill never knock on your door again

These rotting butterflies dwell in your stomach
When it comes to you I have no conscience
You're living your life in a lie,
You're living your life in a lie
This sweet candy is dirty from the inside

Now that I threw all my medicine away,
Ill never knock on your door again
The damage is done we'll never be a part of anything,
Anything at all 
Dont follow me around

____________________________________________________________

4. Deny It

Tuning: EADG

Intro
1.
G|---------------------------------------------------------|
D|---------------------------------------------------------|
A|-555555-222222-555555-222222-----------------------------|
E|-----------------------------000000-555555-000000-555555-|

Verse
2.
G|----------------------------------------------------------|
D|----------------------------------------------------------|
A|-555x--222x--555x--222x-2x-2x-----------------------------|
E|------------------------------000000-555555-000000-555555-|

3.
G|-------------------------------------------------------------|
D|-------------------------------------------------------------|
A|-555x--222x--555x--222x-2x-2x--------------------------------|
E|------------------------------000000-555555-000000-5555-6666-|

Pre-chorus
4.
G|------------------------------------------------|
D|------------------------------------------------|
A|-222-------------222-------------222------------|
E|-----222-333-555-----222-333-555-----222-333-5x-|

Chorus
"Deny it...You never won..."
5.
G|---------------------------------------------------------|
D|---------------------------------------------------------|
A|-555555-222222---------------555555-222222---------------|
E|---------------333333-555555---------------333333-555555-|

Outro
6.
G|--------------------------------|
D|--------9\1-pluck-while-sliding-|
A|-555x---------------------------|
E|--------------------------------|

Verse
7.
G|-----------------------------------------------------------|
D|-----------------------------------------------------------|
A|-555555-222222-555555-222222-------------------------------|
E|-----------------------------000000-555555-000000-5x--5-5x-|

8.
G|-------------------------------------------------------------|
D|-------------------------------------------------------------|
A|-555x--222x--555x--222x-2x-2x--------------------------------|
E|------------------------------000000-555555-000000-5555-6666-|

Pre-chorus
9.
G|-----------------------------------------------|
D|-----------------------------------------------|
A|-222-------------222-------------222-----------|
E|-----222-333-555-----222-333-555-----222-3x-5x-|

Chorus
"Deny it...You never won..."
10.
G|---------------------------------------------------------|
D|---------------------------------------------------------|
A|-555555-222222---------------555555-222222---------------|--x2
E|---------------333333-555555---------------333333-555555-|

Outro
11.
G|----------------------------------------------------------|
D|----------------------------------------------------------|
A|-------------5~----2~----------------2~----4x----4-4x--4x-|
E|-3~----5~----------------3~----5~-------------------------|

12.
G|---------------------------------------|
D|---------------------------------------|
A|---------------555555-222222-----------|
E|-333333-555555---------------333333-5x-|

Chorus
"Deny it...You never won..."
13.
G|---------------------------------------------------------|
D|---------------------------------------------------------|
A|-555555-222222---------------555555-222222---------------|
E|---------------333333-555555---------------333333-555555-|

"Deny it...You never won..."
14.
G|-------------------------------------------------------------------------------------|
D|-------------------------------------------------------------------------------------|
A|-5~-5-55---2~-2-22------------------------5~-5-55---2~-2-22-----------------------5~-|
E|--------2---------2--3~-3-332--5~-5-55-5---------2---------2--3~-3-332--5~-5-55-5----|

Lyrics:


Call up the station.
Intimidation.
No need to go on.
Make some plans for everyone.
Dress up, you don’t fit.
This suits me perfect.
Take a photograph.
Leave a dying image.
Wait for the train that may never arrive.
Place yourself in the middle and push me aside.
You better hold on because this is your last ride.

Deny it.
You never won.
Do you ever wonder why?
Deny it.
You never won.
Do you ever wonder why?

It’s going to hit you when you least expect it.
It’s been happening so long.
I guess we knew it all along.
Reach for your limits.
I don’t think we’ll make it.
If it were up to you then none of us would be around.
Starve for a good day.
At home it would last.
You can save me a window for questions you ask.
After what we’ve been through it doesn’t matter.

Look at yourself.
You never belong.
You never bothered to blend.
This latest fashion has brought us apart.
You did your time, now GO!

_____________________________________________________________

5. Suffer For The Fame

Tuning: EADG

Intro
1.
G|-----------9~----------------9~------------------9~----------------9~-------|
D|-10~----------12~---9~-----------12~---10~----------12~---9~----------12~---|
A|-----12~---------------11~-----------------12~---------------11~------------|
E|----------------------------------------------------------------------------|

2.
G|-------------------------------------------------------------------------|
D|-------------------------------------------------------------------------|
A|-00000000----------------------------00000000----------------------------|
E|----------11111111-33333333-00000000----------11111111-33333333-44444444-|

3.
G|-------------|
D|-------------|
A|-0~-------0x-|
E|-------------|

Verse
"Dont surrender to the world..."
4.
G|-------------------------------------------------------------------------|
D|-------------------------------------------------------------------------|
A|-00000000-------------------3333--------------55555555-------------------|
E|----------11111111-33333333-----0000-11111111----------33333333-33333333-|

"Sweetness is leaving me again..."
5.
G|-------------------------------------------------------------------------|
D|-------------------------------------------------------------------------|
A|-00000000-------------------3333--------------55555555-------------------|
E|----------11111111-33333333-----0000-11111111----------33333333-3x-------|

Chorus
"Bring back the feeling, oh where are we now?..."
6.
G|---------------------------------------------------------------------------------|
D|---------------------------------------------------------------------------------|
A|-----------------------------------------------------------------------0~-0~-0~--|
E|-1~-1~-1~--3~-3~-3~--0~-0~-0~--1~-1~-1~--1~-1~-1~--3~-3~-3~--0~-0~-0~------------|

"Lose star connection to better us all..."
7.
G|--------------------------------------------------------------------|
D|--------------------------------------------------------------------|
A|----------------------------00000000--------------------0~-0~----0x-|
E|-11111111-33333333-00000000----------11111111-3~-3~-3~--------3~----|

Verse
"Face, listen to the one..."
8.
G|-------------------------------------------------------------------------|
D|-------------------------------------------------------------------------|
A|-00000000-------------------3333--------------55555555-------------------|
E|----------11111111-33333333-----0000-11111111----------33333333-3x-------|

"Its too late..."
9.
G|-------------------------------------------------------------------------|
D|-------------------------------------------------------------------------|
A|-00000000-------------------3333--------------55555555-------------------|
E|----------11111111-33333333-----0000-11111111----------33333333-0x-0x-0x-|

Chorus
"Bring back the feeling of "Where are we now?"..."
10.
G|---------------------------------------------------------------------------------|
D|---------------------------------------------------------------------------------|
A|-----------------------------------------------------------------------0~-0~-0~--|
E|-1~-1~-1~--3~-3~-3~--0~-0~-0~--1~-1~-1~--1~-1~-1~--3~-3~-3~--0~-0~-0~------------|

"Lose star connection to better us all..."
11.
G|-------------------------------------------------------------|
D|-------------------------------------------------------------|
A|----------------------------00000000--------------------0~---|
E|-11111111-33333333-00000000----------11111111-3~-3~-3~-------|

Bridge
"I dont want it in my world..."
12.
G|-----------9~----------------9~------------------9~--------------------------|
D|-10~----------12~---9~-----------12~---10~----------12~---9~-------10~-12~---|
A|-----12~---------------11~-----------------12~---------------11~-------------|
E|-----------------------------------------------------------------------------|

13.
G|-----------9~----------------9~------------------9~------------------------|
D|-10~----------12~---9~-----------12~---10~----------12~---9~---------------|
A|-----12~---------------11~-----------------12~---------------11~-----------|
E|-------------------------------------------------------------------0~--4~--|

"I dont want it in my world..."
14.
G|----------------------------------------------------------------|
D|---------------------------------------------------2-0----------|
A|-0~---------------------------0~-----------------------3-2-3-0~-|
E|------0-1~---1-3xxxxx-0~--4~-------0-1~---1-3xxxxx--------------|

"I dont want it in my world..."
15.
G|-----------------------------------------------------------------------|
D|-----------------------------------------------------------------------|
A|-00000000----------------------------00000000--------------------------|
E|----------11111111-33333333-00004444----------11111111-33333333-00004x-|

Chorus
"Bring back the feeling of "Where are we now?"..."
16.
G|---------------------------------------------------------------------------------|
D|---------------------------------------------------------------------------------|
A|-----------------------------------------------------------------------0~-0~-0~--|
E|-1~-1~-1~--3~-3~-3~--0~-0~-0~--1~-1~-1~--1~-1~-1~--3~-3~-3~--0~-0~-0~------------|

"Lose star connection to better us all..."
17.
G|-------------------------------------------------------|
D|-------------------------------------------------------|
A|----------------------------00000000-------------------|
E|-11111111-33333333-00000000----------11111111-3~-3~-3~-|

"Change!!"
18.
G|-------------|
D|-------------|
A|-0~-0~----0x-|
E|-------3~----|

Lyrics: 

Dont surrender to the world
Let me know you won't
Suffer for the fame

Sweetness is leaving me again
I'll remember when
When we used to be

Bring back the feeling
Oh, where are we now?
Stuck in a moment till we meet again
Lose star connection to better us all
Then maybe something will change

Face, listen to the one
Voice inside the crowd
Make somebody proud
It's too late to leave me with a gift
But i'll leave you with this
A song on how it is

I don't want it in my world


____________________________________________________________

6. Turn Up The Stereo

Tuning: EADG


Intro. x4
1.
G|-----------------------------------|
D|-----------------------------------|
A|-555-----222-----------------------|
E|------555-----222-333--333-555--555|

Verse
"They say you're never gonna make it.." 
2.
G|------------------------------------|
D|------------------------------------|
A|-55555555-22222222------------------|
E|-------------------3333333333333330-|

"We're from.."
3.
G|-----------------------------------|
D|---------------------------444-222-|
A|-55555555-22222222-----------------|
E|-------------------33333333--------|

Pre-Chorus
"If I take you down.."
4.
G|------------------------------|
D|------------------------------|
A|--------------5555-0000000----|
E|-0000-3333333-----------------|

"Would it make you understand.."
5.
G|------------------------------|
D|------------------------------|
A|------------------------------|
E|-0000-3333333--55x-55x-5-5-5-5|

"Let's Go!"
6.
G|-----------------------------------|
D|-----------------------------------|
A|-555-----222-----------------------|
E|------555-----222-333--333-555--555|

Verse
"I say it doesn't really matter.."
7.
G|------------------------------------|
D|------------------------------------|
A|-55555555-22222222------------------|
E|-------------------3333333333333330-|

"As long as you know.."
8.
G|-----------------------------------|
D|---------------------------444-222-|
A|-55555555-22222222-----------------|
E|-------------------33333333--------|

Pre-Chorus
"If I take you down.."
9.
G|------------------------------|
D|------------------------------|
A|--------------5555-0000000----|
E|-0000-3333333-----------------|

"Would it make you understand"
10.
G|------------------------------|
D|------------------------------|
A|------------------------------|
E|-0000-3333333--55x-55x-5-5-5-5|

Chorus
"Can you hear the pirate radio.." x4
11.
G|-----------------------------------|
D|-----------------------------------|
A|-555-----222-----------------------|
E|------555-----222-333--333-555--555|

Repeat:

Verse
Pre-Chorus
Chorus

During Guitar Solo :D x3
12.
G|----------------------|
D|----------------------|
A|-----------5555-2222--|
E|-3333-5555------------|

"I hope I see you there.."
13.
G|--------------------------------|
D|--------------------------------|
A|--------------------------------|
E|-0000000000000000555555555555555|

"Can you hear the pirate radio.." x2
12.
G|-------------------------------------|
D|-------------------------------------|
A|-55555555-22222222-------------------|
E|------------------33333333-55555555--|

Chorus
"Can you hear the pirate radio.." 
13.
G|------------------------------------|
D|------------------------------------|
A|-777-----444------------------------|
E|------777-----444-555--555-777--777-|

Ends with:
14.
G|------------------------------|
D|------------------------------|
A|-------------------777--------|
E|-55555555-77777777------------|


Lyrics:

They say you’ re never gonna make it.
you don’t know how, don’t know how
We're from a different generation 
They cant see what’ s its all about
If I take you down to a place I left behind, 
would it make you understand?

I say, it doesn’t really matter
when you’re all grown up, all grown up
As long as you know where your heart is, 
don’t be scared. let it out.

If I take you down to a place I 
left behind, 
would it make you understand?

Can you hear the pirate radio? 
Turn it up, the sound, of revolution
come on, Play it loud and steal
the air while you can,
because were going back in time.

They say you’re living in a dream world.
you better wake up, better wake up
Sometimes I'd rather stay asleep.

I know where I belong,
Miles away from here
I Hope I see you there

___________________________________________________

7. Before I Go

Tuning: EADG

Intro.
1.
G|------------------------------------|
D|------------------------------------|
A|-------------------5555555555555555-|
E|-5/2222222222222222-----------------|

2.
G|------------------------------------|
D|------------------------------------|
A|------------------------------------|
E|-5555555555555555555555555555555555-|

3.
G|------------------------------------|
D|------------------------------------|
A|-----------------5555555555555555---|
E|-2222222222222222-------------------|

Verse
"Im leaving.."
4.
G|------------------------------------|
D|------------------------------------|
A|------------------------------------|
E|-55x----00x----22x---222~-----------|

"Why would you take.."
5.
G|------------------------------------|
D|------------------------------------|
A|-55555555-88888888------------------|
E|------------------5555555555555555--|

"Dont you let go.."
6.
G|------------------------------------|
D|------------------------------------|
A|------------------------------------|
E|-55x----00x----22x---222~-----------|

"We could've lived.."
7.
G|------------------------------------|
D|------------------------------------|
A|-55555555-88888888------------------|
E|------------------5555555555555555--|

Chorus
"Before I go you should know.."
8.
G|----------------------------------------|
D|----------------------------------------|
A|-4-4-55555555-7777777-44444444-55555555-|
E|----------------------------------------|

"How could they keep.."
9.
G|------------------------------------|
D|------------------------------------|
A|-55555555-77777777-44444444-55555555|
E|------------------------------------|

"Every time I see.."
10.
G|-------------------------------------------|
D|-------------------------------------------|
A|-5-555-7-777-4-444-5-555-55555555-77777777-|
E|-------------------------------------------|

Outro.
11.
G|------------------------------------|
D|------------------------------------|
A|------------------------------------|
E|-55555555555555555555555555555555---|

Verse
"Imagine if we could.."
12.
G|------------------------------------|
D|------------------------------------|
A|------------------------------------|
E|-55x----00x----22x----222~----------|

"Nothing would come.."
13.
G|------------------------------------|
D|------------------------------------|
A|-55555555-88888888------------------|
E|------------------5555555555555555--|

"A scary rerun.."
14.
G|------------------------------------|
D|------------------------------------|
A|------------------------------------|
E|-55x----00x----22x----2x------------|

"What could have happened.."
15.
G|------------------------------------|
D|------------------------------------|
A|-55555555-88888888------------------|
E|------------------5555555555555555--|

Chorus
"Before I go you should know..."
16.
G|----------------------------------------|
D|----------------------------------------|
A|-4-4-55555555-7777777-44444444-55555555-|
E|----------------------------------------|

"How could they keep.."
17.
G|------------------------------------|
D|------------------------------------|
A|-55555555-77777777-44444444-55555555|
E|------------------------------------|

"Every time I see.."
18.
G|-------------------------------------------|
D|-------------------------------------------|
A|-5-555-7-777-4-444-5-555-55555555-77777777-|
E|-------------------------------------------|

19.
G|------------------------------------|
D|------------------------------------|
A|---------44x--55x--7x-7x------------|
E|--5/22x-----------------------------|

20.
G|-------------------------------------------------------|
D|-------------------------------------------------------|
A|----------------------------44444444-55555555-77777777-|
E|-55555555-00000000-22222222----------------------------|

21.
G|---------------------|
D|---------------------|
A|-----4444-5555-7x-7x-|
E|-2222----------------|

"Would we ever be the same.."
22.
G|-------------------------------------------------------|
D|-------------------------------------------------------|
A|----------------------------44444444-55555555-77777777-|
E|-55555555-00000000-22222222----------------------------|

23.
G|---------------------|
D|---------------------|
A|-----4444-5555-7x-7x-|
E|-2222----------------|

Chorus:
"Before I go you should know.."
24.
G|----------------------------------------|
D|----------------------------------------|
A|-4-4-55555555-7777777-44444444-55555555-|
E|----------------------------------------|

"How could they keep.."
25.
G|------------------------------------|
D|------------------------------------|
A|-55555555-77777777-44444444-55555555|
E|------------------------------------|

"Every time I see.."
26.
G|-------------------------------------------|
D|-------------------------------------------|
A|-5-555-7-777-4-444-5-555-55555555-77777777-|
E|-------------------------------------------|


Lyrics

I'm leaving, screaming
My heart is bleeding now. 
Why would you take this life away from me? 

Don't you let go 
It makes you sad, I know. 
We could've lived inside my 80's dream

Before I go you should know that I'll always be here. 
How could they keep me away from you ? 
Everytime I see my reflection in your eyes,
I know that one day you will be mine

Imagine if we could disappear for a while,
Nothing would come between us when were away

A scary rerun deep inside my head.
What could've happened to us if we had stayed?

Would we ever be the same if we let it fall apart ?
Would we ever be the same if we let it fall apart ?

____________________________________________________-

8. Dying Love

Tuning: EADG

Intro.
1.
G|----|
D|----|
A|-4~-|
E|----|

"Nothing's gonna break me down.."
2.
G|-----------------------|
D|-----------------------|
A|---------222-444-------|
E|-555-000---------5555x-|

"I'll find a way to.."
3.
G|----------------------|
D|----------------------|
A|--------2222222-4444x-|
E|-0000000--------------|

"You don't wanna see me drown.."
4.
G|------------------------|
D|------------------------|
A|---------222-444--------|
E|-555-000---------55555x-|

"Every tear is a memory.."
5.
G|--------------------------------------------------------------|
D|--------------------------------------------------------------|
A|-------222222-444444-------------222222-444444------222222222-|
E|-000000-------------555555-000000-------------555555----------|

"Dying love... Is all we have..."
6.
G|---------------------------------------------------------|
D|---------------------------------------------------------|
A|-000000-222222-444444--------000000-222222-444444--------|
E|----------------------444444----------------------444444-|

7.
G|---------------------------------------------------|
D|---------------------------------------------------|
A|-000000-222222-444444--------000000-222222-444444x-|
E|----------------------444444-----------------------|

"Nothing's gonna break me down.."
8.
G|-----------------------------------------------------------|
D|-----------------------------------------------------------|
A|--------22-44~------------------22-22~-44-44~---777--------|
E|-55-00~--------55-55-0~--00-00~--------------------4455555-|

"Recover from this mental health.."
9.
G|--------------------------------------------------------------|
D|--------------------------------------------------------------|
A|-------222222-444444-------------222222-444444------222222222-|
E|-000000-------------555555-000000-------------555555----------|

"Dying love... Is all we have..."
10.
G|---------------------------------------------------------|
D|---------------------------------------------------------|
A|-000000-222222-444444--------000000-222222-444444--------|
E|----------------------444444----------------------444444-|

11.
G|-------------------------------------------|
D|-------------------------------------------|
A|-000000-222222-444444--------000000-222222-|
E|----------------------444444---------------|

2:07
12.
G|---------------------------------|
D|---------------------------------|
A|-4444---666777---------222-------|
E|-----000-------5555-000---4444---|


Lyrics:

Nothing's gonna break me down
I'll find a way to bury you within the past
You don't want to see me drown
My eyes are burning
Every tear a memory
Your perfume in my skin
Takes a few weeks to wash it off
Been so hard
Cutting you out of my veins

Dying love is all we have
There's no control and no regrets
I gave it all
I gave it up for a reason
there's nothing left for me to do
I'm losing it
Waiting here for you

Nothing's gonna break me down
The twisted life you've given me
A bloody scene
This nightmare is leaving now
Recover from this
Mental health where i've been
Paint me black, I'll see white
I won't be calling you tonight
Feel my pulse
Steal it and leave me behind
I just can't take it

We say we're overdue
Now i can say I'm over you

___________________________________________

9. Drinkage

Tuning: EADG

Intro
1.
G|----------------------|
D|-------------xxx-1-2~-|
A|-xxx-4-5~-------------|
E|----------------------|

Verse
"We get off the plane..."
2.
G|--------------------------------------------|
D|--------------------------------------------|
A|-0-00------2-22---------3-33-----------3-33-|
E|------2-22------0-00---------1-11-4-44------|

"Motoki dropped us..."
3.
G|--------------------------------------------------------------|
D|--------------------------------------------------------------|
A|-0-00------2-22---------3-33-----------3-xx-3-33-----------3x-|
E|------2-22------0-00---------1-11-4-44-----------1-11-4-44----|

Chorus
"We're all going out tonight..."
4.
G|--------------------------------------------------------------------------|
D|--------------------------------------------------------------------------|
A|----------33333333-00000000-------------------33333333-00000000-0000-0----|
E|-11111111-------------------33333333-11111111--------------------------3~-|

5.
G|--------------------------------------------------------------------------|
D|--------------------------------------------------------------------------|
A|----------33333333-00000000-----------------------------------------------|
E|-11111111-------------------33333333-11111111-11111111-11111111-1111-1-4~-|

Verse
"Sydney town at the bar with the gang..."
6.
G|--------------------------------------------|
D|--------------------------------------------|
A|-0-00------2-22---------3-33-----------3-33-|
E|------2-22------0-00---------1-11-4-44------|

7.
G|--------------------------------------------------------------|
D|--------------------------------------------------------------|
A|-0-00------2-22---------3-33-----------3-xx-3-33-----------3x-|
E|------2-22------0-00---------1-11-4-44-----------1-11-4-44----|

Chorus
"We're all going out tonight..."
8.
G|--------------------------------------------------------------------------|
D|--------------------------------------------------------------------------|
A|----------33333333-00000000-------------------33333333-00000000-0000-0----|
E|-11111111-------------------33333333-11111111--------------------------3~-|

9.
G|-------------------------------------------------------------------------|
D|-------------------------------------------------------------------------|
A|----------33333333-00000000----------------------------------------------|
E|-11111111-------------------33333333-11111111-11111111-11111111-11111111-|

Bridge
10.
G|---------------------------------------------------------------------|
D|---------------------------------33x-33x-33x-33x-6666-5555-3333-5555-|
A|-33x-33x-33x-33x-00x-00x-00x-00x-------------------------------------|
E|---------------------------------------------------------------------|

11.
G|---------------------------------------------------------------------|
D|---------------------------------33x-33x-33x-33x-6x---5x---3x---5x---|
A|-33x-33x-33x-33x-00x-00x-00x-00x-------------------------------------|
E|---------------------------------------------------------------------|

12.
G|------------------------------------------------------------------|
D|------------------------------------------------------------------|
A|-3-3-3-3-3-3-3-330-0-0-0-0-0-0-00---------------------------------|
E|---------------------------------1-1-1-1-1-1-1-111-1-1-1-1-1-1-11-|

13.
G|-------------------------------------------------------------|
D|-------------------------------------------------------------|
A|-3-3-3-3-3-3-3-33--------------------------------------------|
E|-----------------4-4-4-4-4-4-4-441-1-1-1-1-1-1-111-1-1-1-1-1-|

14.
G|---------------------------------------------------------------|
D|---------------------------------------------------------------|
A|-------0~------------0~------------0~------------0~--0~--------|
E|-1-4~------------4~------------4~------------4~----------------|

Chorus
"We're all going out tonight..."
15.
G|--------------------------------------------------------------------------|
D|--------------------------------------------------------------------------|
A|----------33333333-00000000-------------------33333333-00000000-0000-0----|
E|-11111111-------------------33333333-11111111--------------------------3~-|

16.
G|-------------------------------------------------------------------------|
D|-------------------------------------------------------------------------|
A|----------33333333-00000000----------------------------------------------|
E|-11111111-------------------33333333-11111111-11111111-11111111-22222222-|

"We're all going out...."
17.
G|-------------------------------------------------------------------------|
D|-------------------------------------------------------------------------|
A|----------55555555-22222222-00000000----------55555555-22222222-0x-------|
E|-33333333----------------------------33333333----------------------------|

18.
G|-------------------------------------------------------------------------|
D|-------------------------------------------------------------------------|
A|----------55555555-22222222-00000000-11111111-11111111/5~-------5x-------|
E|-33333333----------------------------------------------------------------|

Lyrics:

We got off the plane wasted again.
We drank all the wine on the way to Japan.
Motoki dropped us off at Tokyo hands.
No show for tonight but we got us a plan.

We're all going out tonight in case you want to know.
Raise your glass with me forget the heartache.
We're all going out tonight in case you want to know 
we'll meet you there.

Sydney town, at the bar with the gang.
Drinking whiskey whenever we can.
Passed out again and not feeling so well.
Gordy and Nigel trashed the hotel.
You know home is so far away.

________________________________________

10. Everything Turned Red

Tuning: EADG

Intro.
1.
G|---------------|
D|---------------|
A|-33-33-33-33---|
E|---------------|

"I am still waiting.."
2.
G|---------------------------------|
D|---------------------------------|
A|---------3333333322222222-----333|
E|-33333333----------------00000---|

"I take back the secret.."
3.
G|---------------------------------|
D|---------------------------------|
A|----------------222222223333333--|
E|-333333330000000-----------------| 

"Bright lights and dark screens.."
4.
G|---------------------------------|
D|---------------------------------|
A|---------3333333322222222--------|
E|-33333333----------------000000--|

"Maybe next time I see you.."
5.
G|---------------------------------|
D|---------------------------------|
A|----------------222222223333333--|
E|-333333330000000-----------------| 

Chorus
"I wish that I had a chance.."
6.
G|---------------------------------|
D|---------------------------------|
A|-555555557777777733333333--------|
E|-------------------------3333333-|

"Everything turning red.."
7.
G|---------------------------------|
D|---------------------------------|
A|-55555555777777773x---333333-----|
E|----------------------------3----|

"Full of affection.."
8.
G|------------------------------------|
D|------------------------------------|
A|----------3333333322222222-----3x-3x|
E|-333333333----------------000x------|

"You read me your lines.."
9.
G|---------------------------------|
D|---------------------------------|
A|----------------222222223333333--|
E|-333333330000000-----------------|

"You messed up this one..."
10.
G|------------------------------------|
D|------------------------------------|
A|----------3333333322222222-----3x-3x|
E|-333333333----------------000x------|

"Well it looks like we're heading.."
11.
G|---------------------------------|
D|---------------------------------|
A|----------------222222223333333--|
E|-333333330000000-----------------|

Chorus
"I wish that I had a chance.." x3
12.
G|---------------------------------|
D|---------------------------------|
A|-55555555--------33333333--------|
E|---------00000000--------33333333|

"Everything turning red.."
13.
G|---------------------------------|
D|---------------------------------|
A|-55555555--------3x--333333------|
E|---------00000000----------3-----|

Lyrics:


I am still waiting for one happy ending
I take back the secret, I want you to know
Bright lights and dark screens won't save the last scene
Maybe next time I see you won't be in my dreams

I wish that I had a chance to get to know you
Everything turned red the first time I saw you

Full of affection to get your attention
You read me your lines then I gave you this song
You messed up this one, I better move on
When it seems like we're heading in our separate ways

_________________________________________________________

11. State Of Fear

Tuning: EADG

Intro.
1.
G|---------------------------|
D|---------------------------|
A|---------------------------|
E|-444-----------------------|

2.
G|----------------------------------------|
D|----------------------------------------|
A|-4444-0000-2222-4444-0000-7777-2222-----|
E|------------------------------------4444|

3.
G|----------------------------------------|
D|----------------------------------------|
A|-4444-0000-2222-4444-0000-7777-2~-------|
E|------------------------------------4~--|

Verse
"State of fear.."
4.
G|---------------------------|
D|---------------------------|
A|-444x----------------------|
E|------------55555-00000----|

"Well, it seems.."
5.
G|---------------------------|
D|---------------------------|
A|-44444444444---------------|
E|------------55555-00000----|

Pre-Chorus
"When we all know the answers.."
6.
G|----------------------------------|
D|----------------------------------|
A|-----------------44444444---------|
E|-2222222-44444444--------44444444-|

"How did we end up.."
7.
G|----------------------------------|
D|----------------------------------|
A|-00000000-2222222-44444444-44-2-4-|
E|----------------------------------|

Verse
"Scream out loud!"
8.
G|---------------------------|
D|---------------------------|
A|-4~------------------------|
E|------------55555-00000----|

"The cycle.."
9.
G|---------------------------|
D|---------------------------|
A|-44444444444---------------|
E|------------55555-00000----|

Pre-Chorus
"When we all know the answers.."
10.
G|----------------------------------|
D|----------------------------------|
A|-----------------44444444---------|
E|-2222222-44444444--------44444444-|

"How did we end up this way..."
11.
G|----------------------------------|
D|----------------------------------|
A|-00000000-2222222-444-777-444-777-|
E|----------------------------------|

Pre-Chorus
"When conviction.."
12.
G|----------------------------------|
D|----------------------------------|
A|-----------------44444444---------|
E|-2222222-44444444--------44444444-|

"How did we end up this way.."
13.
G|----------------------------------|
D|----------------------------------|
A|-00000000-2222222-4~--------------|
E|----------------------------------|

Chorus:
"Dont wanna be part of it anyway.." x2
14.
G|----------------------------------------|
D|----------------------------------------|
A|-4444-0000-2222-4444-0000-7777-2222-----|
E|------------------------------------4444|

"With our hands held tight.."
15.
G|----------------------------------|
D|----------------------------------|
A|-44x-00x-22x-44x-00x-77x-22x------|
E|-----------------------------44x--|

"With our hands held tight.."
16.
G|----------------------------------|
D|----------------------------------|
A|-44x-00x-22x-44x-00x-77x-2~-------|
E|----------------------------4~----|

Play verse
Then Pre-Chorus
And then Chorus 

2:12
17.         x3
G|-------------------------------------|
D|-------------------------------------|
A|-------------------------------------|
E|-22222222-44444444-55555555-77777777-|

"It happens again..."
18.
G|-------------------------------------|
D|-------------------------------------|
A|-44-444-400-0-22-244-444-400-0-22----|
E|-------------------------------------|

19.
G|----------------------------------|
D|----------------------------------|
A|-44-444-400-022-244-400-----------|
E|----------------------------------|

20.
G|-------------------------------------|
D|-------------------------------------|
A|-44-444-400-0-22-244-444-400-0-22----|
E|-------------------------------------|

21.
G|-------------------------------------|
D|-------------------------------------|
A|-44444444-0000-2222-44444444-0000-22-|
E|-------------------------------------|

22.
G|-----------------------------------------|
D|-----------------------------------------|
A|-44444444-0000-2222-44444444----------44~|
E|-----------------------------22x-444x----|

Lyrics:

State of fear, an explosion right outside my door.
Well, it seems there's a lot of profit to be made from war.

When we all know the answers, one question remains.
How did we end up this way?

Scream out loud. Let yourself be heard.
The cycle is never ending there's a lesson to be learned.

When conviction will break them apart.
How did we end up this way?

Don't want to be a part of it anyway,
I wasn't made to serve you in any way,
With our hands held tight No we're not going anywhere.
With our hands held tight No we're not going anywhere.

It happens again, like it happened before.
It happens again, no more.
It happens again, like it happened before.
It happens again, no more.

____________________________________________________

12. Redemption

Tuning: EADG

Intro
1.
G|-----------------------|
D|-----------------------|
A|-222-0x----------------|
E|----------333-2x---2-3-|

Verse
"Run away!!"
2.
G|-------------------------------------------------------------------------|
D|-------------------------------------------------------------------------|
A|-------------------------------------------------------------------------|
E|-00000000-00000000-33333333-33333333-00000000-00000000-33333333-33333333-|

"You've been in decline for far too long..."
3.
G|-----------------------------------------------------------------------------|
D|-----------------------------------------------------------------------------|
A|-33333333-33333333-00000000-00000000-------------------222-0x----------------|
E|-------------------------------------00000000-00000000----------333-2x---2-3-|

"Seven days!!"
4.
G|-------------------------------------------------------------------------|
D|-------------------------------------------------------------------------|
A|-------------------------------------------------------------------------|
E|-00000000-00000000-33333333-33333333-00000000-00000000-33333333-33333333-|

"Its over when you reach the other side..."
5.
G|-------------------------------------------------------------------------|
D|-------------------------------------------------------------------------|
A|-33333333-33333333-00000000-00000000-77777777-77777777-55555555-5x-------|
E|-------------------------------------------------------------------------|

Chorus
"Dont wait around for someone..."
6.
G|-------------------------------------------------------------------------|
D|-------------------------------------------------------------------------|
A|-33333333-33333333-55555555-55555555-------------------33333333-33332222-|
E|-------------------------------------33333333-33333333-------------------|

"The weight you had to carry..."
7.
G|-------------------------------------------------------------------------|
D|-------------------------------------------------------------------------|
A|-00000000-00000000-55555555-55555555-------------------------------------|
E|-------------------------------------33333333-33333333-00000000-00000000-|

"Its not too late to save you now..."
8.
G|-------------------------------------------------------------------------|
D|-------------------------------------------------------------------------|
A|-33333333-33333333-55555555-55555555-22222222-22222222-------------------|
E|-------------------------------------------------------00000000-00000000-|

"You'll have to make it on your own..."
9.
G|------------------------------------------------------|
D|------------------------------------------------------|
A|-00000000-00000000-55555555-55555555-7~---------------|
E|------------------------------------------------------|

Outro
10.
G|-----------------------|
D|-----------------------|
A|-222-0x----------------|
E|----------333-2x---2-3-|

Verse
"Run away!!"
11.
G|-------------------------------------------------------------------------|
D|-------------------------------------------------------------------------|
A|-------------------------------------------------------------------------|
E|-00000000-00000000-33333333-33333333-00000000-00000000-33333333-33333333-|

"You will survive..."
12.
G|----------------------------------------------------------------|
D|----------------------------------------------------------------|
A|-33333333-33333333-00000000-00000000-------------------5x-------|
E|-------------------------------------00000000-00000000----------|

Chorus
"Dont wait around for someone..."
13.
G|-------------------------------------------------------------------------|
D|-------------------------------------------------------------------------|
A|-33333333-33333333-55555555-55555555-------------------33333333-33332222-|
E|-------------------------------------33333333-33333333-------------------|

"The weight you had to carry..."
14.
G|-------------------------------------------------------------------------|
D|-------------------------------------------------------------------------|
A|-00000000-00000000-55555555-55555555-------------------------------------|
E|-------------------------------------33333333-33333333-0~-0-0-0~-0-0~-0~-|

"Its not too late to save you now..."
15.
G|-----------------------------------------------------------------|
D|-----------------------------------------------------------------|
A|-3~-3-3-3-3x---5~-5-5-5-5x---22222222-22222222-------------------|
E|-----------------------------------------------00000000-00000000-|

"You'll have to make it on your own..."
16.
G|-------------------------------------|
D|-------------------------------------|
A|-00000000-00000000-55555555-55555555-|
E|-------------------------------------|

Outro
17.
G|-------------------------------------------------------------------------|
D|-------------------------------------------------------------------------|
A|-7~----------------7~----------------3~----------------3~----------------|
E|-------------------------------------------------------------------------|

Bridge
"Can you dig a tunnel through the wall..."
18.
G|-------------------------------------------------------------------------------------|
D|-------------------------------------------------------------------------------------|
A|-------------------------------------------3~-3x-----------------3~-3x---------------|
E|-0~-0x----------------0~-0x----------------------------------------------------------|

"Can you dig a tunnel through the wall..."
19.
G|-------------------------------------------------------------------------------------|
D|-------------------------------------------------------------------------------------|
A|----------2~-0~--------------------2~-0~-----------3~-3~----2~-0~-----------3~-3~----|
E|-0~-0~----------3~--2-3-2-0~-0~----------3~--2-3-2----------------3~--2-3-2----------|

20.
G|-------------------------------------------------------------------------|
D|-------------------------------------------------------------------------|
A|-------------------------------------------------------------------------|
E|-00000000-00000000-00000000-00000000-00000000-00000000-00000000-00000000-|

21.
G|-------------------------------------------------------------------------|
D|-------------------------------------------------------------------------|
A|-33333333-33333333-33333333-33333333-33333333-33333333-3x----------------|
E|-------------------------------------------------------------------------|

22.
G|-------------------------------------------------------------------------|
D|-------------------------------------------------------------------------|
A|-------------------------------------------------------------------------|
E|-00000000-00000000-00000000-00000000-00000000-00000000-00000000-00000000-|

23.
G|-------------------------------------------------------------------------|
D|-------------------------------------------------------------------------|
A|-33333333-33333333-33333333-33333333-------------------------------------|
E|-------------------------------------33333333-33333333-22222222-2x-------|

Chorus
"Dont wait around for someone..."
24.
G|-------------------------------------------------------------------------|
D|-------------------------------------------------------------------------|
A|-33333333-33333333-55555555-55555555-------------------33333333-33332222-|
E|-------------------------------------33333333-33333333-------------------|

"The weight you had to carry..."
25.
G|-------------------------------------------------------------------------|
D|-------------------------------------------------------------------------|
A|-00000000-00000000-55555555-55555555-------------------------------------|
E|-------------------------------------33333333-33333333-00000000-0~-------|

"Its not too late to save you now..."
26.
G|----------------------------------------------------------------------------|
D|----------------------------------------------------------------------------|
A|-33333333-33333333-55555555-55555555-22222222-22222222-33333333-33333-3-3-3-|
E|----------------------------------------------------------------------------|

"For eternity"
27.
G|------------------------------------|
D|------------------------------------|
A|-3~-------5~------------------------|
E|-------------------0~---------------|

Lyrics:

Run away. It's time to break the silence.
You've been in decline for far to long
Seven days you lie awake at night
It's over when you reach the other side.

Don't wait around for someone to leave behind the weight you had to carry
That day may never come.
It's not to late to save you now.
you'll have to make it on your own.

Run away this time,
not a fear inside you will survive,
hope will set you free

Can you dig a tunnel through the wall? help yourself find a way out.
find a way out.

Can you dig a tunnel through the wall? Sing the song of redemption.

Don't wait around for someone to leave behind the weight you had to carry
That day may never come.
It's not to late to save you now.
For eternity.


_______________________________________

Thank you for taking your time
I hoped you enjoy
And see you next time
Cheers!

+++++++++++++++++++++++++++++++++
| RaiLeff                       |
| Underground__Dora@Hotmail.Com |
+++++++++++++++++++++++++++++++++

            
            
Suggest correction
Creating personal tab
Creating personal tab
You can edit any tab online and save it as your Personal.

You can edit, replace or remove any tab part or add personal notes – all changes will be seen only by you.

Personal tabs can be accessed anytime from any device, even offline.
Learn more »
Give kudos to tab author, rate the tab!
1 2 3 4 5
comments
print report bad tab
guest
You may want to rate the tab now too:
select rating
Wanna post a correction for this tab? Suggest correction