Oops, an error
Loading. Please wait.

Yeah Tab

version 3
version 3

Whole song

Interactive

2,915 views 12 this week
3 commentsread comments
1 2 3 4 5
x 7
add to favorites
launch autoscroll
font size
0
reset
how to read this tab
guitar tuner
Autoscroll
slow
fast
+/-
esc
set tempo
stop
Help us to improve Ultimate-Guitar.com Take our survey!
×
Author
-------------------------------------------------------------------------------
                             YEAH - Usher
-------------------------------------------------------------------------------
Tabbed by: Trevor L.
Email: smoktlok2@aol.com

main:

e|---------------------------------------------------------------------------|
B|---------------------------------------------------------------------------|
G|-----0--9---0--10----0--11---0--10-----------------------------------------|
D|---------------------------------------------repeat over and over----------|
A|---------------------------------------------------------------------------|
E|---------------------------------------------------------------------------|


whistle part of chorus (4x):

e|---11--11--11--10--8--10--8--9--6------------------------------------------|
B|---------------------------------------------------------------------------|
G|---------------------------------------------------------------------------|
D|---------------------------------------------------------------------------|
A|---------------------------------------------------------------------------|
E|---------------------------------------------------------------------------|
Suggest correction
comments
print report bad tab
3 comments total.
0 reply
jdixonfan 10 Feb 01, 2005 12:00 AM

this is wrong. it only goes 1-2 1-3 1-3 1-2 (for the rhythm) not
1-2 1-3 1-4 1-3

0 reply
jdixonfan 10 Feb 01, 2005 12:00 AM

E----2---3---3---2-----
b--0---0---0---0-------

this is how it really goes.

0 reply
delaqua 82 Nov 28, 2005 10:23 AM

I have no idea what this song is SUPPOSED to be.

guest
You may want to rate the tab now too:
select rating
Wanna post a correction for this tab? Suggest correction