Oops, an error
Loading. Please wait.

Nuestro Amor Chords

10 views 1 this week
no commentswrite comment
1 2 3 4 5
3 more votes to show rating
add to favorites
launch autoscroll
font size
0
reset
transpose
0
reset
display chords
guitar tuner
Autoscroll
slow
fast
+/-
esc
set tempo
stop
Help us to improve Ultimate-Guitar.com Take our survey!
×
INTRO (G - D - Bm - F#m)

Aki les traigo un tema muy bueno a pesar q no soy
cristiano me pareció un tema muy bueno para dedicarlo a esa
 persona tan especial.
Esta es la parte del punteo luego de la primera vuelta con la guitarra.
E|------------------------------------------------------|
B|---3/555--7----3/555--7---8-7-5-----7-7/-8-7-5------3-|
G|--------------------------------7-6------------7-6----|
D|------------------------------------------------------|
A|------------------------------------------------------|
E|------------------------------------------------------|


G                D     Bm F#m
Nuestro amor sufriraaa lo rechazaran y te alejaraaaannnn

G                      D                  Bm F#m
La tempestad que destrozaaaa pero nuestro amor descansa en diooos

       G          A              Bm F#m
( ytalvez) hoooooo (no te pueda ver) hoooojoooo

             G     A               Bm F#m   G
(comfiare en dioooos) que me esperaraaaaaaaasss

Bm F#m    G
que me esperaraaaaaaaasss

G                   D  Bm F#m
junto a ti quiero estar para amarte y respetar

G                        D           Bm F#m
eres lo mas hermoso q llego a mi corazón sin ti no puede estar

      G          A              Bm F#m
( ytalvez)hoooooo (no te pueda ver)hoooojoooo


           G    A              Bm F#m   G
(confía en dioooos) yo te esperareeeeeeeeeee


Bm F#m   G
yo te esperareeeeeeeeeee


 G         A    Bm F#m
(uuuuuuujujuuuju)o noooooooooo


 G         A    Bm F#m
(uuuuuuujujuuuju)o noooooooooo


       G          A              Bm F#m
( ytalvez) hoooooo (no me pueda ver)hooooJoooo


             G     A                        Bm F#m G
(comfiare en dioooos)joooooohhque me esperaraaaaaaaaaaas


Bm F#m   G
que me esperaraaaaaaaaaaa


       G          A              Bm F#m
( ytalvez) hoooooo (no me puedas ver)hoooojoooo


           G     A             Bm F#m   G
(confía en dioooos)yo te esperareeeeeeeeeee


Bm F#m   G
yo te esperareeeeeeeeeee


E|------------------------------------------------------|
B|---3/555--7----3/555--7---8-7-5-----7-7/-8-7-5------3-|
G|--------------------------------7-6------------7-6----|
D|------------------------------------------------------|
A|------------------------------------------------------| (x2)
E|------------------------------------------------------|

Al final es el mismo punteo pero esta vez se toca 2 veces y
 de fondo se escucha la segunda voz de la guitarra no la vi muy importante
 pero hay la tienen
 el tema eso es todo espero q les guste.
Cualquier cosa me escriben a mi correo

Poderososcar@

GUIENSE POR EL RITMO PUEDE SER Q EN ALGUNAS PARTES SE MOVIERON LAS
NOTAS ESPERO Q NO PERO AVER Q LES PARECE ESPERO Q LES GUSTE
Suggest correction
Give kudos to tab author, rate the tab!
1 2 3 4 5
comments
print report bad tab
guest
You may want to rate the tab now too:
select rating
Wanna post a correction for this tab? Suggest correction