Oops, an error
Loading. Please wait.

Pattern Of The Weak Tab

by V28
435 views 3 this week
no commentswrite comment
1 2 3 4 5
2 more votes to show rating
add to favorites
launch autoscroll
font size
0
reset
how to read this tab
guitar tuner
Autoscroll
slow
fast
+/-
esc
set tempo
stop
Help us to improve Ultimate-Guitar.com Take our survey!
×
Author
Difficulty
Tuning
novice
B F# B E G# C#
Artist: V:28
Title: Pattern Of The Weak (feat. G.G.F.H.)
Album: VioLution (2007)
Label: Vendlus Records

Fully tabbed by Goad.
For questions or whatever, just leave a comment.

The band's website: http://www.v28.com/
The band's myspace: http://www.myspace.com/v28band

Lead guitarist: Kristoffer Oustad
Rhythm guitarist: Eddie Risdal

Dropped B Tuning

>  = play note with added emphasis
+  = pinch harmonics (only used on very first note of song)
\  = slide down to lower note
h  = hammer on
p  = pull off
.  = palm mute
*  = tremolo
() = note(s) held from previous measure (also cont'd use of tremolo where noted)
/\ = triplets (they'll be above the notes)

==========
INTRO:
    Lead guitar (let each note ring)
C#|---------8-----8-----8-----8-|----8-----8-----8-----8--|
G#|-12+--12----12----12----12---|-12----12----12----12----|
E |-----------------------------|-------------------------|
B |-----------------------------|-------------------------|
F#|-----------------------------|-------------------------|
B |-----------------------------|-------------------------|
    >                             >

    Lead guitar
C#|----8-----8-----8-----8-|-------------------------|
G#|-12----12----12----12---|-------------------------|
E |------------------------|-------------------------|
B |------------------------|-------------------------|
F#|------------------------|-------------------------|
B |------------------------|-------------------------|
  | >                                                  repeat
  | Rhythm guitar                                      4 times
C#|------------------------|-------------------------|
G#|------------------------|-------------------------|
E |------------------------|-5--h7-------------7-----|
B |-11-\\\\\\\\\\\\\\\\\-7-|-----------------------0-|
F#|-11-\\\\\\\\\\\\\\\\\-7-|---------6--p5-----------|
B |-11-\\\\\\\\\\\\\\\\\-7-|-------------------------|


VERSE 1: (0:31)
    Rhythm guitar
C#|-----------------------|------------------------|------------------------|
G#|-----------------------|------------------------|------------------------|
E |-----------------------|------------------------|------------------------|
B |-----------------------|------------------------|------------------------|
F#|-----------------------|------------------------|------------------------| 5x
B |-10*-------------------|-(10)-------------------|-9*----------13*--------|

(Repeat the riff above 1 time, then 4 more times under Lead guitar riff.)

    Lead guitar -- repeat 2 times
C#|-----------------------|------------------------|-9*---------------------|
G#|-----------------------|------------------------|------------------------|
E |-5*--------------------|-(5)--------------------|------------------------|
B |-----------------------|------------------------|------------------------|
F#|-----------------------|------------------------|------------------------|
B |-----------------------|------------------------|------------------------|

C#|-----------------------|------------------------|------------------------|
G#|-6*--------------------|-8*---------------------|-9*---------------------|
E |-----------------------|------------------------|------------------------|
B |-----------------------|------------------------|------------------------|
F#|-----------------------|------------------------|------------------------|
B |-----------------------|------------------------|------------------------|


INTERLUDE: (1:18)
    Rhythm guitar
C#|-----------------------|------------------------|
G#|-----------------------|------------------------|
E |-----------------------|------------------------|
B |-1-1---0---------------|-(0)--------------------|
F#|-1-1---0---------------|-(0)--------------------| 8x
B |-1-1---0---------------|-(0)--------------------|
    . .

The Rhythm guitar is played all throughout the INTERLUDE;
the Extra guitar comes in after the first 3 chords of the Rhythm guitar are played.

    Extra guitar (keyboard arranged for guitar) -- repeat 4 times
C#|------------------6----|-(6)--------------------|
G#|--------------8--------|------------------------|
E |----------7------------|------------------------|
B |-----------------------|------------------------|
F#|-----------------------|------------------------|
B |-----------------------|------------------------|

C#|----------8---6--------|------------------------|
G#|-----------------------|------------------------|
E |------------------8----|-(8)--------------------|
B |-----------------------|------------------------|
F#|-----------------------|------------------------|
B |-----------------------|------------------------|

On the 3rd repetition of the Extra guitar riff, the synth comes in;
the Lead guitar comes in on the 4th repetition of the Extra guitar riff

    Lead guitar
C#|-----------------------|------------------------|
G#|-----------------------|------------------------|
E |----------8*-----------|-(8)--------------------|
B |-----------------------|------------------------|
F#|-----------------------|------------------------|
B |-----------------------|------------------------|

C#|-----------------------|------------------------|
G#|-----------------------|------------------------|
E |-(8)-------------------|-(8)--------------------|
B |-----------------------|------------------------|
F#|-----------------------|------------------------|
B |-----------------------|------------------------|


BRIDGE: (2:07)
    Lead guitar -- repeat 4 times
C#|-----------------------|----------------8*--11*-|
G#|-----------------------|------------------------|
E |-8*--------------------|-(8)--------------------|
B |-----------------------|------------------------|
F#|-----------------------|------------------------|
B |-----------------------|------------------------|

C#|-----------------------|----------------8*--10*-|
G#|-----------------------|------------------------|
E |-7*--------------------|-(7)--------------------|
B |-----------------------|------------------------|
F#|-----------------------|------------------------|
B |-----------------------|------------------------|


VERSE 2: (2:57)
(both Lead and Rhythm come in at the same time)
    Rhythm guitar -- repeat 6 times
C#|-----------------------|------------------------|
G#|-----------------------|------------------------|
E |-----------------------|------------------------|
B |-----------------------|------------8*----7*----|
F#|-6*--------------------|-(6)--------------------|
B |-----------------------|------------------------|
                          (tremolo the 8 in triplets)

C#|-----------------------|------------------------|
G#|-----------------------|------------------------|
E |-----------------------|------------------------|
B |-------------------/-\-|--------------------/-\-|
F#|-5*--------/-\-/-\-666-|-5*---------/-\-/-\-555-|
B |-----------444-666-----|------------444-666-----|

    Lead guitar -- repeat 6 times
C#|-----------------------|----------------8*--11*-|
G#|-----------------------|------------------------|
E |-8*--------------------|-(8)--------------------|
B |-----------------------|------------------------|
F#|-----------------------|------------------------|
B |-----------------------|------------------------|

C#|-----------------------|----------------8*--10*-|
G#|-----------------------|------------------------|
E |-7*--------------------|-(7)--------------------|
B |-----------------------|------------------------|
F#|-----------------------|------------------------|
B |-----------------------|------------------------|

On the 5th repetition of VERSE 2, the synth comes in:

    Extra guitar (synth arranged for guitar) -- repeat 2 times
C#|-----------------------|------------------------|
G#|-----------------------|------------------------|
E |-8---------------------|-(8)---------10---------|
B |-----------------------|------------------------|
F#|-----------------------|------------------------|
B |-----------------------|------------------------|

C#|-----------------------|------------------------|
G#|-----------------------|-10---------------------|
E |-7---------------------|------------------------|
B |-----------------------|------------------------|
F#|-----------------------|------------------------|
B |-----------------------|------------------------|


OUTRO: (4:11)
    Rhythm guitar -- repeat 4 times
C#|-----------------------|------------------------|
G#|-----------------------|------------------------|
E |-8----8----------------|------------------------|
B |-8----8----------------|------------------------|
F#|-6----6----------------|------------------------|
B |-----------------------|------------------------|

C#|-----------------------|------------------------|
G#|-----------------------|------------------------|
E |-7----7----------------|------------------------|
B |-7----7----------------|------------------------|
F#|-5----5----------------|------------------------|
B |-----------------------|------------------------|

Both Lead guitar and Extra guitar are the same as in VERSE 2,
so just continue playing from there. Repeat these riffs 4 times, too.

THE END!
Suggest correction
Give kudos to tab author, rate the tab!
1 2 3 4 5
comments
print report bad tab
guest
You may want to rate the tab now too:
select rating
Wanna post a correction for this tab? Suggest correction